Bodeans - Fadeaway Chords & Tabs

 

Fadeaway Chords & Tabs

Bodeans Chords & Tabs

Version: 1 Type: Tab 0 ratings
1 star 2 stars 3 stars 4 stars 5 stars
comments

Fadeaway Tab

   
Bodeans - Fadeaway
Since no one on the web has ANYTHING of this song posted, I though I'd post what I
know to my favorite site.  This is far from perfect, but I've seen requests for
it everywhere so here's what I've got...


  Am    F    G


e-------------000000---------4--3--0---3-----3-0----3------5--5-3-------------------|
B--0h1p0h1p0h1p0h1p0-----1p0----1----0---1---1----0---1----1--1-1-0-----------------|
G----------------------2--------2------------2-------------2--2-2-------------------|
D--------------------2----------2------------2----------2-------2-------------------|
A-----------------------------------------------------------------------------------|
E-----------------------------------------------------------------------------------|


   Am                F     G5
e----------0-------------------------------0------------------0---------------------|
B------1-0---0-1-------1-----3-------1-0------0-1-----------------3-----------------|
G----2-----------2---------0-------2--------------2--0------2---0-------------------|
D--2-----------------3-----------2------------------------3-------------------------|
A-----------------------------------------------------------------------------------|
E-----------------------------------------------------------------------------------|

[ Tab from: http://www.guitartabs.cc/tabs/b/bodeans/fadeaway_tab.html ]
e----------0--------------------------0---------------------------------------------|
B------1-0---0-1----1-----3-------0-1---1-------------------------------------------|
G----2------------------0-------2---------2-----------------------------------------|
D--2--------------3-----------2-------------2---------------------------------------|
A-----------------------------------------------------------------------------------|
E-----------------------------------------------------------------------------------|


e-------------------------------------------------------------------------------------|
B--0h1-------------------------0h1------------------------0h1-------------------------|
G------2-2---2-0---2-0---0-0-------2-2---2-0---2-0---0-0------2-2---2-0---2-0---0-0---|
D----------2-----3-----0---------------2-----3-----0--------------2-----3-----0-------|
A-------------------------------------------------------------------------------------|
E-------------------------------------------------------------------------------------|


e-----------------------------------------------------------------------------------|
B--0h1-----0h1----------------------------------------------------------------------|
G------2-2-----2-0---2-0-0----------------------------------------------------------|
D------------------3----------------------------------------------------------------|
A-----------------------------------------------------------------------------------|
E-----------------------------------------------------------------------------------|
Comments