Bobby Doran - Doll Chords & Tabs

 

Doll Chords & Tabs

Bobby Doran Chords & Tabs

Version: 1 Type: Tab 0 ratings
1 star 2 stars 3 stars 4 stars 5 stars
comments

Doll Tab

   
Standard Tuning

INTRO/VERSE/CHORUS

E--------------------------------------|
B----3-----3-------3---3---------3-----|
G-----2---2-2-----0---0---6----6---6---|
D---4--4---------4---4----5---5------5-|
A-5-----4-----2------x----x------------|
E--------------------3----5------------|

BRIDGE
  B   A   D   G (2x)Em  A   Em  A
E-------------------0---0---0---0-|
B-5---5---7---5-----0---0---0---0-|
G-7---6---0---x-----0---2---0---2-|
D-7---7---7---7-----2---2---2---2-|
A-x---x---5---x-----2---0---2---0-|
E-7---5-------3-----0-------0-----|

CHORUS / END

LYRICS
[ Tab from: http://www.guitartabs.cc/tabs/b/bobby_doran/doll_tab.html ]
I just realized
It was you all along
I had you in my arms
Right where you belong
But I threw it all away
All for this other girl
Yeah, she made me feel alright
Well, at least warm for the night
Darlin', you've got me up all night
The winter snow reminds me
Of you in the passenger seat
I kissed your lips for the very first time
If ever again, when will it be?
If we ever find the time
If we ever meet again
I'll save you a valentine
Or maybe my heart instead
And maybe fall in love again
Again...
And my heart could go on
But, with you, I could never go wrong
Now I'm lying awake
Oh, there has to be a way
Now I'm falling to pieces
Could we pick up everything right where we left off?
Maybe, oh
Yeah, I'll fall in love with you
Someday
If we ever find the time
You know I need you
You know I want you back, baby
But I threw it all away
I just realized
It was you all along
Comments