Bob Seger - Like A Rock Chords & Tabs

 

Like A Rock Chords & Tabs

Bob Seger Chords & Tabs

Version: 1 Type: Tab 0 ratings
1 star 2 stars 3 stars 4 stars 5 stars
comments

Like A Rock Tab

Bob Seager  Like A Rock (solo)
Transcribed by: Colten Todhunter - thor89@gmail.com


  2:10 Capo on 1st fret (only effects 1 open note so its not necassary)




E|-----------------------------------------------------------------9-11-11-11-|
B|---------------------------------------------------------7/13-13------------|
G|---------------------------11-6---------------------7/13--------------------|
D|--------6-6h8-6-----6-8/11------6h8-6-------6-6h8-10------------------------|
A|-5b-6-6---------6h8-------------------8-6h8---------------------------------|
E|----------------------------------------------------------------------------|



E|--9----9------------8/9-9/13--13/17--0--------------------------------------|
B|----13---13\9-9-9\-------------------9b--11--------10-10/12-12-12/14-14-/17-|
G|---------------------------------------------9--11--------------------------|
D|----------------------------------------------------------------------------|
A|----------------------------------------------------------------------------|
E|----------------------------------------------------------------------------|



E|-12-14--17-17--19/21--21--21-17-12\7-7/9--9/10\9----------------------------|
B|--------------------------------------------------9\5-----------------------|
G|------------------------------------------------------9\5-5/9---------------|
D|----------------------------------------------------------------------------|
A|----------------------------------------------------------------------------|
E|----------------------------------------------------------------------------|



  (Outro solo)


   4:38


E|----------------------------------------------------------------------------|
B|----------------------------------------------------------------------------|
G|----------------------------------------------8----10--10/13--13------------|
D|-------------------------7-9b-----7-9b-7-6/7--9b----------------------------|
A|-7-7-7-7-7-7-7-7-7-7-7h9------7h9-------------------------------------------|
E|----------------------------------------------------------------------------|


[ Tab from: http://www.guitartabs.cc/tabs/b/bob_seger/like_a_rock_tab.html ]
E|----------------------------------------------------------------------------|
B|----------------------------------------------------------------------------|
G|--13-13p11----13-13p11----13-13-13------13/15--15/17--17-13-----------------|
D|-----------13----------13-----------13----------------------13--13/15\13----|
A|----------------------------------------------------------------------------|
E|----------------------------------------------------------------------------|



E|---------------------17--17\12--12h14p12------------------------------------|
B|-----------------------------------------12/14--14\10--10/12-12-12-10-----10|
G|-----------------13---------------------------------------------------12----|
D|-9/11--10b------------------------------------------------------------------|
A|------------11--------------------------------------------------------------|
E|----------------------------------------------------------------------------|



E|----------------------------------------------------9-----12h14--12\8-------|
B|--12--10/12--14--10/12-------8----8------10--10/12----10---------------10---|
G|--------------------------11---11---7/11------------------------------------|
D|----------------------------------------------------------------------------|
A|----------------------------------------------------------------------------|
E|----------------------------------------------------------------------------|



E|-12h14--17-17--17h19-21-21-21h22--21--22\17--17\12--12\7--7/9--9h10--9\7----|
B|-------------------------------------------------------------------------10-|
G|----------------------------------------------------------------------------|
D|----------------------------------------------------------------------------|
A|----------------------------------------------------------------------------|
E|----------------------------------------------------------------------------|



E|-17-17h19-17--12/14-13b-13b-13b-10/12-10-10---------------------------------|
B|----------------------------------------------9---11--5---7-----7/----14----|
G|----------------------------------------------9b------5b--------7/----14----|
D|----------------------------------------------------------------------------|
A|----------------------------------------------------------------------------|
E|----------------------------------------------------------------------------|


Suggestions/Corrections
thor89@gmail.com
Comments