Bob Schneider - Big Blue Sea Chords & Tabs

 

Big Blue Sea Chords & Tabs

Bob Schneider Chords & Tabs

Version: 1 Type: Tab 0 ratings
1 star 2 stars 3 stars 4 stars 5 stars
comments

Big Blue Sea Tab

   
Bob Schneider- ?Big Blue Sea?
Standard Tuning (EBGDAE)

   G         B         Em        C
E------3-x-------7-x--------------------------------------|
B------3-x-------7-x--------------------------------------|
G------4-x-------8-x-------0-x-------5-x------------------|
D------5-x-------9-x-------2-x-------5-x------------------|
A------5-x-------9-x-------2-x---3-3-3-x------------------|
E--3-3-3-x---7-7-7-x---0-0-0-x----------------------------|

   G         B         Em        C
E------3-x-------7-x--------------------------------------|
B------3-x-------7-x--------------------------------------|
G------4-x-------8-x-------0-x-------5-x------------------|
D------5-x-------9-x-------2-x-------5-x------------------|
A------5-x-------9-x-------2-x---3-3-3-x------------------|
E--3-3-3-x---7-7-7-x---0-0-0-x----------------------------|

   G         B         Em        C
E------3-x-------7-x--------------------------------------|
B------3-x-------7-x--------------------------------------|
G------4-x-------8-x-------0-x-------5-x------------------|
D------5-x-------9-x-------2-x-------5-x------------------|
A------5-x-------9-x-------2-x---3-3-3-x------------------|
E--3-3-3-x---7-7-7-x---0-0-0-x----------------------------|
[ Tab from: http://www.guitartabs.cc/tabs/b/bob_schneider/big_blue_sea_tab.html ]
G         rest   B         Em        rest
E------3-------------7-x----------------------------------|
B------3-------------7-x----------------------------------|
G------4-------------8-x-------0--------------------------|
D------5-------------9-x-------2--------------------------|
A------5-------------9-x-------2--------------------------|
E--3-3-3---------7-7-7-x---0-0-0--------------------------|

   G         B         Em        C
E------3-x-------7-x--------------------------------------|
B------3-x-------7-x--------------------------------------|
G------4-x-------8-x-------0-x-------5-x------------------|
D------5-x-------9-x-------2-x-------5-x------------------|
A------5-x-------9-x-------2-x---3-3-3-x------------------|
E--3-3-3-x---7-7-7-x---0-0-0-x----------------------------|

   G         B         Em        C
E------3-x-------7-x--------------------------------------|
B------3-x-------7-x--------------------------------------|
G------4-x-------8-x-------0-x-------5-x------------------|
D------5-x-------9-x-------2-x-------5-x------------------|
A------5-x-------9-x-------2-x---3-3-3-x------------------|
E--3-3-3-x---7-7-7-x---0-0-0-x----------------------------|

   G    B   Em   C
E--3----2----0---0----|
B--3----4----0---1----|
G--0----4----0---0----|
D--0----4----2---2----|
A--2----2----2---3----|
E--3---------0--------|

This is all I have so far.  It sounds good to me.  More is on the way.
If you have any suggestions e-mail lemming86@yahoo.com
Comments