Bob Mould - Poison Years Chords & Tabs

 

Poison Years Chords & Tabs

Bob Mould Chords & Tabs

Version: 1 Type: Tab 0 ratings
1 star 2 stars 3 stars 4 stars 5 stars
comments

Poison Years Tab

#----------------------------------PLEASE NOTE---------------------------------#
#This file is the author's own work and represents their interpretation of the #
#song. You may only use this file for private study, scholarship, or research. #
#------------------------------------------------------------------------------##
 <9307181551.AA12300@bohr.physics.purdue.edu>
From: Daniel L. Lovall 
Subject: /Mould.Bob/PoisonYears.crd
To: jamesb@animal-farm.nevada.edu
Date: Sun, 18 Jul 93 10:51:22 EST
Cc: lovall@animal-farm.nevada.edu (Daniel L. Lovall)
X-Mailer: ELM [version 2.3 PL11]


 		Poison Years by Bob Mould
 	        From: Workbook

 (Acoustic Intro Let all notes ring)

 e------------0--------------0-------|
 B----------0---0------0---0---0---0-|
 G----------------0------------------|  Repeat many times, until
 D-----------------------------------|  Chorus begins.
 A-------------------------------2---|
 E--3-2-0------------3---2-----------|

[ Tab from: http://www.guitartabs.cc/tabs/b/bob_mould/poison_years_tab.html ]
 These Poison thoughts in my mind
 Got to free myself from this bind
 I know I'm a reasoning guy

 In an act like Jesus Christ
 Stare into the Sun
 You don't  see eye to eye with anyone

 "Chorus"

    A (strum frantically)  B (strum frantically also)
 e--0----------------------2-----------------------------------|
 B--2----------------------4-----------------------------------|
 G--2----------------------4-----------------------------------|
 D--2----------------------4-----------------------------------|
 A--0----------------------2-----------------------------------|
 E--0----------------------2-----------------------------------|

   Don't throw it all away (don't talk to me no more)
   the more I hear the less I have to say (I don't remember you no more)
   About these Poison years (it's just a memory..)

 [Back to intro part again, second verse and chorus, and then the
  electric part begins. I don't know the electric part, I always
  skip it when I do this one on the acoustic.]
 --------------------------------------------------------------------
Comments