Bob Mould - Dreaming I Am Chords & Tabs

 

Dreaming I Am Chords & Tabs

Bob Mould Chords & Tabs

Version: 1 Type: Tab 0 ratings
1 star 2 stars 3 stars 4 stars 5 stars
comments

Dreaming I Am Tab

#----------------------------------PLEASE NOTE---------------------------------#
#This file is the author's own work and represents their interpretation of the #
#song. You may only use this file for private study, scholarship, or research. #
#------------------------------------------------------------------------------##
Dreaming, I Am
by Bob Mould

tuning:
EBEF#BF#

F#------4------2-------0-----0-----0-----0-----0-----0--|
B-------------------------------------------------------|
F#------4------2-------0-----0-----0-----0-----0-----0-.|
E------------------------------------------------------.|
B-----4------2------0------2-----4-----2-----0-----2----|
E---4------4------4------4-----4-----4-----4-----4------|

F#------0-------0-------0-------0--|-----|
B----------------------------------|-----|
F#------0-------0-------0-------0-.|-----|
E-----0-------0-------0-------0---.|-----|
B---5-----5-4-----4-2-----2-0------|-0---|
E----------------------------------|---0-|
[ Tab from: http://www.guitartabs.cc/tabs/b/bob_mould/dreaming_i_am_tab.html ]
  Fig 1             **second time only
F#--0-0-0--12--9-7-5sl7--|--0--------------------------------|
--MORE--(40%)               B---0-0-0--0---0-0-0--0--|--0----|
F#--0-0-0--12--9-7-5sl7-.|--0--------------------------------|
E---0-0-0--0---0-0-0--0-.|--2--------------------------------|
B---0-0-0--0---0-0-0--0--|--2--------------------------------|
E---0-0-0--0---0-0-0--0--|--2--------------------------------|
                            ^Fig 2

play fig one for the first two "dreaming i am" s
play fig 2 for the rest

F#--7-5-4-5-4-0-0-|
B---5-4-0-0-0-0-0-|
F#--7-5-4-5-4-0-0-|
E---5-4-0-0-0-0-2-|
B---5-4-0-0-0-0-2-|
E---5-4-0-0-0-0-2-|
    7 7         8
    X X         X

play the above chords 7 and 8 times respectively.


   harmonics
--MORE--(68%)               F#---------------------12---|
B-----12----------12------------------------------------|
F#-------12----12---------------------------------------|
E-----------12------------------------------------------|
B---7----------------7----------------------------------|
E-------------------------------------------------------|

18~
I t5hink Brazillia is in the same tuning...
F#--3sl5-5-5-5-5sl3--|----5-----5-----|
B---0--0-0-0-0-0--0--|------5-----5---|
F#--3sl5-5-5-5-5sl3--|--------5-----5-|   etc.
E---0--0-0-0-0-0--0--|--0-------------|
B---0--0-0-0-0-0--0--|--0-------------|
E---0--0-0-0-0-0--0--|--0-------------|


IF THIS IS POSTED ANYWHERE ELSE, PLEASE GIVE ME CREDIT.
thanks,
Sam

please send SPECIFIC requests to:

trubba not,
-Sam     elric@selway.umt.edu   OR   elric@axposf.pa.dec.com
Rain King in chains there's nowhere to go  OR elric@lewis.umt.edu
On my naming day when i come 12, i kilt a wyld boar. trubba not.
Comments