Bob Marley - Three Little Birds Chords & Tabs

 

Three Little Birds Chords & Tabs

Bob Marley Chords & Tabs

Version: 1 Type: Tab 0 ratings
1 star 2 stars 3 stars 4 stars 5 stars
comments

Three Little Birds Tab

   
----------------------------------------------------------------------------
			THREE LITTLE BIRDS - Bob Marley
----------------------------------------------------------------------------
Tabbed by:BIGBOPPA
Tuning:Standard


    A                   A                   D         G    D    A
[ Tab from: http://www.guitartabs.cc/tabs/b/bob_marley/three_little_birds_tab.html ]
e|--5----5----5----5----5----5----5----5----5----5----3----5----5--| 
B|--5----5----5----5----5----5----5----5----7----7----3----7----5--| Version
G|--6----6----6----6----6----6----6----6----7----7----4----7----6--| 
D|--7----7----7----7----7----7----7----7----7----7----5----7----7--|    1
A|-(7)--(7)--(7)--(5)--(7)--(7)--(7)--(7)--(5)--(5)--(5)--(5)--(7)-|
E|-(5)--(5)--(5)--(5)--(5)--(5)--(5)--(5)------------(3)-------(5)-|


    A                   A                   D         G    D    A

e|--5----5----5----5----5----5----5----5----2----2----3----2----5--|
B|--5----5----5----5----5----5----5----5----3----3----3----3----5--| Version
G|--6----6----6----6----6----6----6----6----2----2----4----2----6--| 
D|--7----7----7----7----7----7----7----7----4----4----5----4----7--|    2 
A|-----------------------------------------------------------------|
E|-----------------------------------------------------------------|
Comments