Bob Marley - Stir It Up Chords & Tabs

 

Stir It Up Chords & Tabs

Bob Marley Chords & Tabs

Version: 2 Type: Bass Tab 0 ratings
1 star 2 stars 3 stars 4 stars 5 stars
comments

Stir It Up Bass Tab

-----------------------------------------------------------------------------
                          Bob Marley - Stir It Up
-----------------------------------------------------------------------------

username: gotta have kaya
[ Tab from: http://www.guitartabs.cc/tabs/b/bob_marley/stir_it_up_btab_ver_2.html ]
*Just to start off, there wasn't too much wrong with the other version. What I am
tabbing out is the live version of the song that appears on the Live! album.

main riff:
G|----------------------------|
D|-7-------------4-7-----6-9--|
A|---4-4h5-4-4h5-----6h7------|
E|----------------------------|

verse:
G|----------------------|
D|-----------------4----|
A|------4-----5-77---5--|
E|-5-77---5-------------|

enjoy.
one love
Comments