Bob Marley - Jammin Chords & Tabs

 

Jammin Chords & Tabs

Bob Marley Chords & Tabs

Version: 2 Type: Bass Tab 0 ratings
1 star 2 stars 3 stars 4 stars 5 stars
comments

Jammin Bass Tab

its not that much different from the other tab
its pretty easy
but there is alot of variation so improv as much as you can





[ Tab from: http://www.guitartabs.cc/tabs/b/bob_marley/jammin_btab_ver_2.html ]
G|---------------------------------------5-5-5---5----------------------|
D|--------------------2---2-2-2----------------5---4---4-4---4-4-4------|
A|-2-2-2-2-2-2-2--------2----------------------------------4------------|
E|----------------------------------------------------------------------|

Chorus Part
 |------------------------------5-5-5---5-----------------|
 |-------0-2-2---4-------0-2-2--------5----4---4-4---4-4-4|
 |-2-2---------------2-2---------------------------4------|
 |--------------------------------------------------------|
Comments