Bob Marley - Is This Love Chords & Tabs

 

Bob Marley Chords & Tabs

Version: 1 Type: Tab 0 ratings
1 star 2 stars 3 stars 4 stars 5 stars
comments

Is This Love Tab

This is the intro for the song.  the notes are right, just figure out the timing by
listening to the song.


[ Tab from: http://www.guitartabs.cc/tabs/b/bob_marley/is_this_love_tab.html ]
                                                                                       
E-|-----------5-----------------------------9------10--9------10--9----------|
B-|-----5--7-----7-----5--7----------7--10-----10---------10---------10------|
G-|--6--------------6-------------7------------------------------------------|
D-|--------------------------------------------------------------------------|
A-|--------------------------------------------------------------------------|
E-|--------------------------------------------------------------------------|
                                                                                       
                                                                            
E-|-----------5-----------------------------9--9--9--7--9--7--5--|
B-|-----5--7-----7-----5--7----------7--10-----------------------|
G-|--6--------------6-------------7------------------------------|
D-|--------------------------------------------------------------|
A-|--------------------------------------------------------------|
E-|--------------------------------------------------------------|
Comments