Bob Marley - I Shot The Sheriff Chords & Tabs

 

I Shot The Sheriff Chords & Tabs

Bob Marley Chords & Tabs

Version: 1 Type: Tab 0 ratings
1 star 2 stars 3 stars 4 stars 5 stars
comments

I Shot The Sheriff Tab

Artist: Bob Marley
Song:   I Shot the Sheriff
Album:  Many
Submited by: Thomas ”RostFrost” Johansson

Intro:
e-----------------------------------
b-----------------------------------
G-----------------------------------
D-7--5------------------------------
A--------7--5-----5--7--5-----------
E---------------8------------8--5---

Chorus:
e-5-5-----5------5-5-------5----------10-10-----10---------10-10------10--- 
b-5-5-----5------5-5-------5----------10-10-----10---------10-10------10---
G-5-5-----5------5-5-------5----------10-10-----10---------10-10------10---
D--------------------------------------------------------------------------
A--------------------------------------------------------------------------
E--------------------------------------------------------------------------
[ Tab from: http://www.guitartabs.cc/tabs/b/bob_marley/i_shot_the_sheriff_tab.html ]
e-5-5-----5------5-5-------5------------5-5------5--------5-5------5-------
b-5-5-----5------5-5-------5------------5-5------5--------5-5------5-------
G-5-5-----5------5-5-------5------------5-5------5--------5-5------5-------
D--------------------------------------------------------------------------
A--------------------------------------------------------------------------
E--------------------------------------------------------------------------

Verse:
e-5---------7-----------5--------------------------------------------------
b-6---------8-----------5--------------------------------------------------
G-5---------7-----------5--------------------------------------------------
D--------------------------------------------------------------------------
A--------------------------------------------------------------------------
E--------------------------------------------------------------------------

Go home now and drift away with tha spiritual music..
….take it easy and float..just float away with JAH!
Comments