Bob Marley - Exodus Chords & Tabs

 

Exodus Chords & Tabs

Bob Marley Chords & Tabs

Version: 1 Type: Tab 0 ratings
1 star 2 stars 3 stars 4 stars 5 stars
comments

Exodus Tab

   
EXODUS
BOB MARELY
EXODUS

Intro:
E:----------------------------------------------------------------------|
B:-------------------------------------13-13----------------------------|
G:2-0-2-5-5-2-0-2-0-0-------------10h12-----12-10-10-10-10-10h12-12-----|
D:--------------------7(let ring)*--------------------------------------|
A:----------------------------------------------------------------------|
E:----------------------------------------------------------------------|


  "EXODUS!"              "MOVEMENT OF JAH PEOPLE"
E:----------------------------------------|
B:----------------------------------------|
G:2-2-2-2-5-0-0-0-2-2-2-2-5-5-7-7-9-0-0-2-|
D:----------------------------------------|
A:----------------------------------------|
E:----------------------------------------|

"Open your eyes and let me tell you this"

  Repeat this through da verse.
E:------------------|
B:------------------|
G:2-2-2-2-5-0-0-0-2-|
D:------------------|
A:------------------|
E:------------------|
Verse:
Men and people will fight you down (Tell me why?)
When you see JAH light (ha ha ha ha ha ha)
Let me tell you, if you're not wrong (Then why?)
ev'rything is alright
So we gonna walk, alright, through the roads of creation
We're the generation (Tell me why)
trod through great tribulation

Chorus (do dis one twice):
  "EXODUS!"              "MOVEMENT OF JAH PEOPLE"
E:----------------------------------------|
B:----------------------------------------|
G:2-2-2-2-5-0-0-0-2-2-2-2-5-5-7-7-9-0-0-2-|
D:----------------------------------------|
A:----------------------------------------|
E:----------------------------------------|
[ Tab from: http://www.guitartabs.cc/tabs/b/bob_marley/exodus_tab.html ]
  Repeat this through da verse.
E:------------------|
B:------------------|
G:2-2-2-2-5-0-0-0-2-|
D:------------------|
A:------------------|
E:------------------|
Verse:
Open your eyes and look within
Are you satisfied with the life you're living?
We know where we're going; we know where we're from
We're leaving Babylon, we're going to our fatherland
(1-2-3-4)

Chorus (do dis one as many times as ya need to but with some cool as variations in 
and hammer ons):
  "EXODUS!"              "MOVEMENT OF JAH PEOPLE"
E:----------------------------------------|
B:----------------------------------------|
G:2-2-2-2-5-0-0-0-2-2-2-2-5-5-7-7-9-0-0-2-|
D:----------------------------------------|
A:----------------------------------------|
E:----------------------------------------|

Send us another brother Moses (gonna cross the Red Sea!)
(do this twice):
E:------------------|
B:------------------|
G:2-2-2-2-5-0-0-0-2-|
D:------------------|
A:------------------|
E:------------------|
Send us another brother Moses (gonna cross the Red Sea!)
(do this twice):
E:------------------|
B:------------------|
G:2-2-2-2-5-0-0-0-2-|
D:------------------|
A:------------------|
E:------------------|

Exodus, movement of Jah people
Exodus, Exodus, Exodus, Exodus,
Exodus, Exodus, Exodus, Exodus
Move! Move! Move! Move! Move! Move!
for ^ that, use the chorus riff and verse riff. you'll figure out where 2 use what.

The song is basically that shit that is shown above.
But at the end where it has that loud guitar part that sounds like "Movement of Jah people," you do:
E:5-5-5-5-8-3-3-3-5-|
B:------------------|
G:------------------|
D:------------------|
A:------------------|
E:------------------|
and repeat that as much as you need to.

That be dee EXODUS guitar tab tabbed by the one and only joemama@yourass.com
Comments