Bob Marley - Buffalo Soldier Chords & Tabs

 

Buffalo Soldier Chords & Tabs

Bob Marley Chords & Tabs

Version: 1 Type: Tab 0 ratings
1 star 2 stars 3 stars 4 stars 5 stars
comments

Buffalo Soldier Tab

Author/Artist: Bob Marley
Title: Buffalo Soldier
Album: Legend
Transcribed by: Kyle Corrigan
Email: BilaBoy66@aol.com

-5-5-5-5----------2-2-2-2-----------------------------------------------------
-5-5-5-5----------2-2-2-2-----------------------------------------------------
-6-6-6-6----------2-2-2-2-----------------------------------------------------
-7-7-7-7----------5-5-5-5-----------------------------------------------------
-7-7-7-7----------5-5-5-5-----------------------------------------------------
-5-5-5-5----------2-2-2-2-----------------------------------------------------
 Buffalo soldier, Dreadlocked Rasta(and so on untill......)                   
[ Tab from: http://www.guitartabs.cc/tabs/b/bob_marley/buffalo_soldier_tab.html ]
-5-5-5-5-5-3-2----------------------------------------------------------------
-6-5-6-5-5-3-2----------------------------------------------------------------
-7-7-7-7-7-4-2----------------------------------------------------------------
-7-7-7-7-7-5-5----------------------------------------------------------------
-5-5-5-5-5-5-5----------------------------------------------------------------
---5---5-5-3-2----------------------------------------------------------------
 When I analyze the stench.......                                             

-5-5-5-5-5-2-2-5--------------------------------------------------------------
-5-5-5-5-5-2-2-5--------------------------------------------------------------
-7-7-7-7-7-2-2-7--------------------------------------------------------------
-7-7-7-7-7-5-5-7--------------------------------------------------------------
-5-5-5-5-5-5-5-5--------------------------------------------------------------
-5-5-5-5-5-2-2-5--------------------------------------------------------------
 woy woy woy, woy woy woy, woy woy woy,yo yo  yo.
Comments