Bob Dylan - Wicked Messenger Chords & Tabs

 

Wicked Messenger Chords & Tabs

Bob Dylan Chords & Tabs

Version: 1 Type: Tab

Wicked Messenger Tab

   
G                                                     F
  :   .   .   .     :   .   .   .     :   .   .   .     :
|-----6---3-------|-----------------|-----------------|-1---------|
|-------------6---|-3---------------|-----------------|-1---------|
|-----------------|-----5---3-------|-----------------|-2---------|
|-----------------|-------------5---|-3---------------|-3---------|
|-----------------|-----------------|-----5---3-------|-3---------|
|-----------------|-----------------|-------------5---|-1---------|
There was   a  wic-ked   mes-sen-ger, from  E-  li  he  did   come       with a
[ Tab from: http://www.guitartabs.cc/tabs/b/bob_dylan/wicked_messenger_tab.html ]
  G
  :   .   .   .     :   .   .   .     :   .   .   .      :
|-----6---3-------|-----------------|-3----------------|----------|
|-------------6---|-3---------------|-3----------------|----------|
|-----------------|-----5---3-------|-4----------------|----------|
|-----------------|-------------5---|-5----------------|----------|
|-----------------|-----------------|-5----------------|----------|
|-----------------|-----------------|-3----------------|----------|
mind that mul-ti- plied the smal-lest mat-ter

G
There was a wicked messenger
                F
From Eli he did come,
       G
With a mind that multiplied the smallest matter.

When questioned who had sent for him,
                     F
He answered with his thumb,
        G
For his tongue it could not speak, but only flatter.