Boa - Elephant Chords & Tabs

 

Elephant Chords & Tabs

Boa Chords & Tabs

Version: 1 Type: Tab 0 ratings
1 star 2 stars 3 stars 4 stars 5 stars
comments

Elephant Tab

   
Song: Elephant
Artist:BOA
Tabber: Raine
E-mail:battle_angel_14@hotmail.com
Official Boa Website:http://www.boaweb.co.uk/
My website:www.angelfire.com/anime5/kirarei

o-k this song is really easy and really pretty! Regular tuning


Intro:(finger pick this and let it ring)

e|---------0----------------00-------------2---0---------------00------------
b|-------3-----3---------------------------------3--------------------10-----
g|----4------4----------0----------------2---2-----2--------0------------9-9-
d|--4----------------------0-----------0------------------2--2---------------
a|2------------------2----------------------------------3-------------8------
e|----------------3------------------------------------------------------8-8-


Verse:(strum each cord a few times)(x2)
e|--0---0---0---0------------------------
b|--3---3---3---3------------------------
g|--4---0---2---0------------------------
d|--4---2---0---2------------------------
a|--0---3---x---3------------------------
e|--x---x---x---x------------------------

e|--3--0---3---0---0-----------------------
b|--3--3---3---3---0-----------------------
g|--0--2---0---2---0-----------------------
d|--2--0---2---0---2-----------------------
a|--3--x---3---x---2-----------------------
e|--x--x---x---x---x-----------------------

Now repeat the entire Verse including the (x2)

pre chorus:

e|--0----0---0---0--------------------
b|--0----2---0---2--------------------
g|--3----2---3---2--------------------
d|--3----2---3---2--------------------
a|--1----0---2---0--------------------
e|--x----x---x---x--------------------

Chorus:(x2)
[ Tab from: http://www.guitartabs.cc/tabs/b/boa/elephant_tab.html ]
e|-0--0--0--3------------------------
b|-3--0--2--3------------------------
g|-2--0--2--0------------------------
d|-0--2--2--0------------------------
a|-x--2--0--2------------------------
e|-x--x--x--3------------------------

then you play everything through one more time!

Lyrics:

Elephant
Lyrics by Jasmine Rodgers
Music by bรดa 
If I was to hold one hand over my face now
Would you know me?
Or would you see the other side of me?
And if you were to notice
There is a plan I've been devising
To go, to go now, far away from here
And I gonna be so brave
And I gonna go so far away

Where are the wise men?
Where have they all gone to
Did they follow the spirit children
Down the road that only they know?
And you and I know that the answer lies
Somewhere deep in the city of skies
We're gonna go there
We're gonna go there
We're gonna see the daylight
And I, gonna fly away now
And I, gonna go where the path runs high

Oh, I'm searching, Oh yeah.

I'm gonna go there, I'm gonna travel
I'm gonna see my through and
You can follow
We can go together
Trunk in hand we're gonna go

Isn't it touching the way the trees hold the leaves
Into the sky
And when the breeze blows
All you can see is the green and gold
You and I know that the city holds, the street night lights
And we're gonna find it
We're gonna find the gold that illuminates our lives
And I, gonna go so far away
And I, gonna see the stars up high

Hear me out, hear me out
I'm searching
Hear me out, yeah

We can go there, we can travel
Over the motorway, over the valley
All the way there with your gentle spirit
I am not afraid
With your gentle spirit
I am not afraid
I am not afraid
I am not afraid
I am not afraid


Comments