Blur - Theres No Other Way Chords & Tabs

 

Theres No Other Way Chords & Tabs

Blur Chords & Tabs

Version: 1 Type: Tab 0 ratings
1 star 2 stars 3 stars 4 stars 5 stars
comments

Theres No Other Way Tab

   
Song: There's No Other Way
Artist: Blur
Album: ?
Transcribed by: Eric Tranvinh 
E-mail: fookwanfoo@hotmail.com


Questions? Send an e-mail.

Standard tuning

h = hammer-on
p = pull-off
/ = slide up
\ = slide down


Intro/lead guitar riff

e|-------------------------------------------------------------------
B|---------12-12--------14----12\------------3-----------5---3--2----
G|---------12-12--------14----12\------\3--3-3-----------5---2--2----
D|-----/14-------12-h14----------------\3--3-------3-h5------2--2----
A|-----/14-----------------------------------------------------------
E|-------------------------------------------------------------------


Verse Riff
Lead guitar

e|-----------------------------------2--2--2-------------------------
B|--------5--5-x-3--------2h3p2------3--3--4--------2h3p2------------
G|--------4--4-x-2--------2----------2--2--2--------2----------------
D|--2-----2--2-x-0---2-h4-4-----/4---4--4--4---2-h4-4----------------
A|------------------------------/2---------2-------------------------
E|-------------------------------------------------------------------

Verse Riff
Other guitar (accompanies lead guitar)

e|-----------------------------------2--2--2-------------------------
B|--5-----5--------------------------3--3--4-------------------------
G|--4-----4--------------------------2--2--2-------------------------
D|--2-----2---------------------/4---4--4--4-------------------------
A|------------------------------/2---------2-------------------------
E|-------------------------------------------------------------------


Chorus Riff (both guitars)                               
[ Tab from: http://www.guitartabs.cc/tabs/b/blur/theres_no_other_way_tab.html ]
e|--------------------------3----5-------3-----5--------|------------
B|--------9---x--7----------3----5-------3-----5-----9--|-9--9-10-9--
G|--------9---x--7----------4----6-------4-----6-----9--|-9--9-9--9--
D|--------9---x--7----------5----7-------5-----7-----9--|-9--9-9--9--
A|---7----7---x--5----------5----7-------5-----7-----7--|------------
E|---0-----------------3----3--X-5-------3-----5-----0--|------------

e|--------------------------3----5-------3-----5---------------------
B|--------9---x--7----------3----5-------3-----5-----9----9----------
G|--------9---x--7----------4----6-------4-----6-----9----9----------
D|--------9---x--7----------5----7-------5-----7-----9----9----------
A|---7----7---x--5----------5----7-------5-----7-----7----7----------
E|---0-----------------3----3--X-5-------3-----5-----0---------------


Interlude

e|-------------------------------------------------------------------
B|------------0------0-----------2h3p2-------------------------------
G|---7\4/7-------0-------0---2-2-------------------------------------
D|-------------------------------------------------------------------
A|-------------------------------------------------------------------
E|-------------------------------------------------------------------


Outro

e|---12-12--12-12----10---10-------------7---7----10---10------------
B|---12-12--12-12----10---10-------------7---7----10---10------------
G|---12h13--13-13----11---11---11h12p11--8---8----11---11--(repeated)
D|---14-14--14-14----12---12---12--------9---9----12---12------------
A|---14-14--14-14----12---12---12--------9---9----12---12------------
E|---12-14--12-12----10---10---10--------7---7----10---10------------

e|---12-------------------------
B|---12-------------------------
G|---12h13----------------------
D|---14-------------------------
A|---14-------------------------
E|---12-------------------------
Comments