Blur - Tender Chords & Tabs

 

Tender Chords & Tabs

Blur Chords & Tabs

Version: 2 Type: Tab 0 ratings
1 star 2 stars 3 stars 4 stars 5 stars
comments

Tender Tab

   
Blur. Tender
Bazz, Thunderchild2000@hotmail.com
Blur - Tender

Bazz says: Good luck playing this beautiful ballad!


|-------------------0-----------------------------------e
|---0-2-0-------0-2--1/2---------2-2-3-2---------3-1/2--B
|-2-------2-2-2----------2---2-----------1---1-1-1-1/2--G
|--------------------------2-------------2--------------D
|------------------------------0------------------------A
|------------------------------------------0------------E

|---------------------0-------------------------0---0-------e
|---0-2-0---------0-2---1/2-------2-2-3-2---------0---0---2-B
|-2---2-----2---2-----------2-------------0-1-------------2-G
|---------2-------------------2---------------2---------2---D
|-------------0-----------------0---------------------------A
|-----------------------------------------------------------E

|------------------------------e
|-------2-2-----2--------2-2---B
|-2--2------2-2----2--2------2-G
|------------------------------D
|------------------------------A
|------------------------------E

|---------------------------0-------------------------------e
|---0-2-0-------------0-1/2---1/2-----------2-2-2-3-2-------B
|-2-------2---------2-----------------------2---------0-1---G
|-----------2---------------------2-----------------------2-D
|-------------0-0-0-----------------0-0-0-0-----------------A
|-----------------------------------------------------------E

|---------------------e
|-3-----3-1-2---------B
|---1---1-1-2---------G
|-----2-2-----2-------D
|---------------0-0-0-A
|---------------------E

[ Tab from: http://www.guitartabs.cc/tabs/b/blur/tender_tab_ver_2.html ]
A                             G                    A
Tender is the light, lying by your side
A                                    G                          A
Tender is the touch, of someone that you love too much
A                                  G                  A
Tender is the day, the demons go away
A                               G                            A
Lord, I need to find, someone who can heal my mind

Chorus:

A                                             D        C
Come on, come on, come on, get through it
A                                             C#m            D
Come on, come on, come on, love's the greatest thing
A                                             D        C
Come on, come on, come on, get through it
A                                             C#m            D                C#m        D
Come on, come on, come on, love's the greatest thing that we have
      C#m                   D    
I'm waiting for that feeling
C#m                    D
Waiting for that feeling
A                         D              A
Waiting for that feeling to come

Bridge:

A                                             E7         A
Oh my baby, oh my baby, oh why, oh my
A                                             E7         A
Oh my baby, oh my baby, oh why, oh my

Tender is the ghost, the ghost I love the most
Hiding from the sun, just waiting for the night to come
Tender is my heart, for screwing up my life
Lord, I need to find, someone who can heal my mind

-Chorus-

-Bridge- (with choir singing alongsides with blur)

Solo:
|----------------------------------5-3-0-2-3-2-0-------------------e
|-------5--------------------2-------------------------------------B
|-5-5-5---5-0------------------2-----------------5-0---------------G
|----------------0-2-0-----------------------------------0-2-0-----D
|------------0-2-------2-0-0-----0-------------------0-2------2-0-0A
|------------------------------------------------------------------E

-Chorus-


Comments