Blur - Swamp Song Chords & Tabs

 

Swamp Song Chords & Tabs

Blur Chords & Tabs

Version: 2 Type: Bass Tab 0 ratings
1 star 2 stars 3 stars 4 stars 5 stars
comments

Swamp Song Bass Tab

   
Blur
"Swamp Song"
13
Tabbed by: I_ME_MYSELF

notes: repeat everything inside asteriks * ... *

< = slide up one fret then play the next note indicated
> = slide down one fret then play the next note indicated

bass-don't play intro

Verse:
G|
D|
A|
E|*0-2---2<7--7-7<-10---10>-7-7-7-*

Fill 1:
G|
D|
A|
E|7-7--7-5-5-1-1-0
[ Tab from: http://www.guitartabs.cc/tabs/b/blur/swamp_song_btab_ver_2.html ]
G|
D|
A|
E|*-2-10-10-10-10---2-7-7--2-7-7-*

G
D
A|--------------5--5--5--5------------------5b5
E|2-4---2-4---2---------------2-4---2-4---2----

Verse

Fill 2:
G|
D|
A|
E|*-2-10-10-10-10---2-7-7--2-7-7-*

G
D
A|--------------5--5--5--5------------------5b5
E|2-4---2-4---2---------------2-4---2-4---2----

Verse
Fill 2
Verse (even throught ("la la la la") to about 4:13

this is pretty much it, so just try it
Comments