Blur - Song 2 Chords & Tabs

 

Song 2 Chords & Tabs

Blur Chords & Tabs

Version: 7 Type: Tab 0 ratings
1 star 2 stars 3 stars 4 stars 5 stars
comments

Song 2 Tab

   
Blur, Song 2.
 Tabbed by Sebastian Lapidus, sebaslap@yahoo.com.
  
Drop D tunning:(D,A,D,G,B,E)

Intro and verse:

Gr.1 & 2 (Clean Tone)
|---------------------------------|
|---------------------------------|
|-10-10-8-8-8---------------------|
|-10-10-8-8-8--6-6-8-10--10-10-10-|
|--8--8-6-6-6--6-6-8-10--10-10-10-|
|--------------6-6-8-10--10-10-10-|

Chorus:(Both guitars distorted)

Gr.1                             Gr.2
|------------------------------|-16-|<-play this seve-
|------------------------------|-x--|  ral times.
|------------------------------|-13-|
|-3-3-1-1-1--6-6-8-10-10-10-10-|----|
|-3-3-1-1-1--6-6-8-10-10-10-10-|----|
|-3-3-1-1-1--6-6-8-10-10-10-10-|----|

Post chorus:
[ Tab from: http://www.guitartabs.cc/tabs/b/blur/song_2_tab_ver_7.html ]
Gr.1(distorted)
|------------------------------|
|------------------------------|
|------------------------------|
|-3-3-1-1-1--6-6-8-10-10-10-10-|
|-3-3-1-1-1--6-6-8-10-10-10-10-|
|-3-3-1-1-1--6-6-8-10-10-10-10-|

Gr.2 (with flanger sounds better)
|---------------------------|
|---------------------------|
|---------------------------|
|---------------------------|
|---------------------------|
|-4/1-4/1-4/1--6-6-8-10--10-|

Outro:

Gr.1(distorted)
|------------------------------|
|------------------------------|
|------------------------------|
|-3-3-1-1-1--6-6-8-10-10-10-10-|
|-3-3-1-1-1--6-6-8-10-10-10-10-|
|-3-3-1-1-1--6-6-8-10-10-10-10-|

Gr.2(also this riff sounds better with flanger)
|---------------------------|
|---------------------------|
|---------------------------| X 2
|---------------------------|
|---------------------------|
|-4/1-4/1-4/1--6-6-8-10--10-|

then:
|--------------------------|
|--------------------------|
|--------------------------|
|--------------------------|
|---------3----------------|
|-4/1-4/1---6-8-10--10-----|

That's all. Enjoy! It's Easy! 
:: Ultimate Guitar Archive :: 
http://www.ultimate-guitar.com 



Comments