Blur - No Distance Left To Run Chords & Tabs

 

No Distance Left To Run Chords & Tabs

Blur Chords & Tabs

Version: 1 Type: Tab 0 ratings
1 star 2 stars 3 stars 4 stars 5 stars
comments

No Distance Left To Run Tab

   
Blur-No Distance Left to Run

Intro:
d/-----------------------------------------------|
A/-----------------------------------------------|
F/-----------------------------------------------|
C/-11^---8^-----------11^---8^-----------11^--8^-|
G/-12^---9^-----------12^---9^-----------12^--9^-|
D/-----0----0-0-0-0-0-----0----0-0-0-0-0----0----|

d/-------------------------------------------|
A/------------------12-12-12-12-12-12-12-12--|
F/------------------13-13-13-13-13-13-13-13--|
C/-------------------x-x--x--x--x--x--x--x---|
G/------------------11-11-11-11-11-11-11-11--|
D/-0-0-0-0-0-0-0-0---------------------------|

Tab to verses and middle:
d/--------------------------------|
A/-12?-10?-9?-7?-5?-7?------12-12-|
F/-13?-11?-9--8?-6?-8?------13-13-|
C/-x---x---x--x--6--x-------------|
G/-11--9---7--6--4--6-6/11--------|
D/--------------------------------|

d/----------------------------------------------------|
A/--------12h14----12h14----12h14-12?-12---------(12--|
F/--------13-------13-------13---------------13-------|
C/-11-----11-------11-------11-----------------13-----|
G/----------------------------------------------------|
D/----------------------------------------------------|
  The note in brakets is played on the 3rd verse.

d/---------------------------------------------------------|
A/---------------------------------------------------------|
F/-12------------------------------------------------------|
C/-----16-16-16----------11-11-11/14-14-14-14/10-10-10-10/-|
G/-----14-14-14-12-12-12-12-12-12/15-15-15-15/10-10-10-10/-|
D/--------------12-12-12-----------------------------------|

d/---------------------------------------|
A/---------------------------------------|
F/-----------------------------------13^-|
C/---11^---8^----------------------------|
G/---12^---9^----9^--9^---9^--12/14------|
D/-0-----0-----0--------0---0------------|
[ Tab from: http://www.guitartabs.cc/tabs/b/blur/no_distance_left_to_run_tab.html ]
It?s over,
you don?t need to tell me
I hope you?re with someone, who makes you feel safe in your sleep
Then tonight,
I wont kill myself trying to stay in your life
I got no distance left to run

Verse 2:
         E
When you see me,
                   C#m        E
turn your back and walk away
  A                                                        G#m
I don?t want to see you because I know the dreams that you keep
            B
is where we meet
            A                       C
When you?re coming down think of me
E        A        E           E
I got no distance left to run

(Middle)

Verse 3:
E
It?s over,
                C#m          E
I knew it would end this way
  A
I hope you're with someone who makes you feel
          G#m       B
that this life, is alive
       A
And it settles down, stays around
C
Spends more time with you
E        A        E
I got no distance left to run

A E A E            D? C#? E
       Coming home
     A E A E  D? C#? E
It?s o-over
A E A E  D? C#? E
   O----v-e-r
     A E  A E    D? C#
No more, no more

(I actually don?t think Damon plays the D and C# at all.)

Outro:
   A     E     A     E
d/----------------------------------------|
A/----------------------------------------|
F/---------------------------7/---6/---9--|
C/-11-14-------11-14---------6/---4/---9--|
G/-12-12-11(~)-12-12-11(~)?--7/---5/---7--|
D/-------12----------12-------------------|
Comments