Blur - Music Is My Radar Chords & Tabs

 

Music Is My Radar Chords & Tabs

Blur Chords & Tabs

Version: 2 Type: Tab 0 ratings
1 star 2 stars 3 stars 4 stars 5 stars
comments

Music Is My Radar Tab

   
MUSIC IS MY RADAR
BLUR
BLUR:THE BEST OF

INTRO

E------------------------------------------------------------------------|
B-------H----15-----H----15----------15------------H----15---15----15----|
G-----14/16-------14/16--------16----------16----14/16----------16-------|
D------------------------------------------------------------------------|
A------------------------------------------------------------------------|
E------------------------------------------------------------------------|


E---------------------------------------------------------------------|
B----------15-----------H----15-----------15--------15----------------|
G----16--------16-----14/16---------16--------16----------16----------|
D---------------------------------------------------------------------|
A---------------------------------------------------------------------|
E---------------------------------------------------------------------|

REPEAT

VERSE

   Em
E------------------------------------------------------------------|
B--12---12---12---12---12---12---12---12---12---12---12------------|
G------------------------------------------------------------------|
D---9----9----9----9----9----9----9----9----9----9----9------------|
A------------------------------------------------------------------|
E------------------------------------------------------------------|

[ Tab from: http://www.guitartabs.cc/tabs/b/blur/music_is_my_radar_tab_ver_2.html ]
E-------------------------------------------------------------------|
B----X--12-12-12-12-12---12---12\---X----X----X----X----------------|
G-----------------------------12\-----------------------------------|
D----X---9--9--9--9--9----9---12\---X----X----X----X----------------|
A-------------------------------------------------------------------|
E-------------------------------------------------------------------|

E-------------------------------------------------19------19-------------------------------------|
B-----------------------------------------------15--15--15--15-----------------------------------|
G---------------------------------------------16------16-----------------------------------------|
D----BEND 1 QUARTER----------BEND 1 QUARTER------------------------------------------------------|
A------------------------------------------------------------------------------------------------|
E----3------------------0----3-------------------------------------------------------------------|

CHORUS

E-------------------------------------------------------------------|
B-------------------------------------------------------------------|
G---------------------------------------------x2-----REPEAT TO FADE-|
D-------------------------------------------------------------------|
A--5--7--7---5--7--7---5--7--7---5--7--7----------------------------|
E-------------------------------------------------------------------|
Comments