Blur - Music Is My Radar Chords & Tabs

 

Music Is My Radar Chords & Tabs

Blur Chords & Tabs

Version: 1 Type: Bass Tab 0 ratings
1 star 2 stars 3 stars 4 stars 5 stars
comments

Music Is My Radar Bass Tab

This song has to be one of Blurs best, ‘a cracking slice of voodoo jazz’.  I think I’ve 
tabbed it pretty well but if you find any corrections please tell me.  Unfortunately I 
couldn’t work out the most interesting part of the song where the guitar and bass scale 
together so again if anyone can work that out please tell me or submit it.  Have fun!!


G-------------------------------
D-------------------------------
A-----7--10—12---10---14----7---
E-------------------------------   x12


G---------------------------              
D---------------------------             
A---------------------------             
E----0--3--5--7--5--0-------  

G---------------------------             
D---------------------------             
A-----10--12—10--14---7-----     
E---------------------------   x4-                                     

(Then comes the scale part….sorry!)


G---------------------------
D---------------------------
A---10--10--10—-0--12—------
E---------------------------   

G--------------------------
D--------------------------
A---10--10--10—-0--12—12---
E--------------------------   x8
                                

G-------------------------------
D-------------------------------
A---10--12--12—-0—10-12--12-----
E-------------------------------

G-----------------------------
D-----------------------10----
A--0-10--12--12—-0—10-12--12--
E-----------------------------   x6-
[ Tab from: http://www.guitartabs.cc/tabs/b/blur/music_is_my_radar_btab.html ]
G---------------------            
D---------------------            
A---------------------              
E----0--3--5--7--5--0-   

G---------------------            
D---------------------           
A-10--12—10--14--7----
E---------------------   x8                   


G---------------------------------------              
D---------------------------------------             
A-------—0-0---------------0-0----------            
E----3------------0--3------------------      x4


G---------------------------------
D---------------------------------
A---10--12--12—-0—10-12--12-------
E---------------------------------

G---------------------------------
D------------------------10-------
A--0-10--12--12—-0—10-12----12----
E---------------------------------       x2


(Step on the fuzz pedal for this next riff if you have access to one.  It sounds like 
the guitar is asking a question and the bass is answering) 


G----------------------------------------           
D----------------------------------------           
A-------0—-—-----------------------------          
E----3------3----------7---3-------------     x4

Then that damn scale bit again!!!   
Then you can either improv or play:

G-------------------------------------           
D-------------------------------------           
A-------5—-7—----5------5-------------         
E----5--------------------------------  x6

G--------------------------------
D--------------------------------
A---10--12--12—-0—10-12--12------
E--------------------------------


G------------------------------
D------------------------10----
A--0-10--12--12—-0—10-12----12-
E------------------------------
Comments