Blur - I Know Chords & Tabs

 

I Know Chords & Tabs

Blur Chords & Tabs

Version: 1 Type: Bass Tab 0 ratings
1 star 2 stars 3 stars 4 stars 5 stars
comments

I Know Bass Tab

Blur
Bass line to "I Know"


Intro/verse

G-----------------------------------
D------4-4-2-2---------2-2----------
A--4-4---------0-2-4-4---------2-2--
E--------------------------4-4------
                                                                               
[ Tab from: http://www.guitartabs.cc/tabs/b/blur/i_know_btab.html ]
Chorus         
                                                                              
G---------------------------------------------------------------
D---------------------------------------------------2---4--4-4--
A--4-4---2--2-2---4-4------------4-4------------2-4-------------
E-----------------------2--2-2---------2--2-2-------------------
                                                                               




Comments