Blur - Good Song Chords & Tabs

 

Good Song Chords & Tabs

Blur Chords & Tabs

Version: 1 Type: Bass Tab 0 ratings
1 star 2 stars 3 stars 4 stars 5 stars
comments

Good Song Bass Tab

Basically this is the whole riff allthroughout the song on bass,
and by the way this is a great song!

[ Tab from: http://www.guitartabs.cc/tabs/b/blur/good_song_btab.html ]
--------------------------------------------------------
--------------------------------------------------------
--------------------------------------------------------
--------------------------------------------------------
--4-x4--------------------------------------------------
---------1-x1---2-x1------------------------------------


--------------------------------------------------------
--------------------------------------------------------
--------------------------------------------------------
--------------------------------------------------------
--4-x4--------------------------------------------------
---------1-x1---2-x1------------------------------------
Comments