Blur - Bugman Chords & Tabs

 

Bugman Chords & Tabs

Blur Chords & Tabs

Version: 1 Type: Tab 0 ratings
1 star 2 stars 3 stars 4 stars 5 stars
comments

Bugman Tab

Bugman
Blur

Submitted By: Frank Verwijs
Email: l.verwijs@gironet.nl

from: 13

riff:
[ Tab from: http://www.guitartabs.cc/tabs/b/blur/bugman_tab.html ]
-------------------------------------------------
-------------------------------------------------
-7--7-7-7-x-3--x-x-5-3-5-3-----------------------
-8--8-8-8-x-4--x-x-6-4-6-4-----------------------
-5--5-5-5-x-1--x-x-3-1-3-1-----------------------
-6--6-6-6-x-2--x-x-4-2-4-2-----------------------

Use following chords in chorus( bass plays root I guess)

A--1--------4-------6-----4-
E--1--------4-------6-----4-

solo in A#

Tabbed by Frank Verwijs
I hope it is in the right key, for my guitar is at the moment tuned down 1 whole step( I broke too many strings bending them too far....)
If you have spotted errors or want to request a song, just ask.
Comments