Blur - Beetlebum Chords & Tabs

 

Beetlebum Chords & Tabs

Blur Chords & Tabs

Version: 1 Type: Bass Tab 0 ratings
1 star 2 stars 3 stars 4 stars 5 stars
comments

Beetlebum Bass Tab

   
  SONG: Beetlebum
ARTIST: Blur
 ALBUM: Blur
TUNING: E A D G

Tablature originally by Jesse Miller (millerbull@sprynet.com)
Revisions by Dan Coates (dcoates@disconnect.net)

This was based off the original tabs I found by Mr. Miller, but I made a few
significant changes that I think make it sound a lot more like the album
version, and a lot better.


Verse:
G|---------|----------------------------------------------------------
D|--8--5---|--7-7---7---7-----7-7---7---7---4-------------------------
A|---------|------7---------------7-----------3-3-------------3-3-----
E|---------|------------------------------------------3-3-------------

G|---------------------------------------------------------------------
D|--------0-3-3-----3---3---3---3-----3---3-----3-5-5-----5---5-----5--
A|------3-------3h5---------------3h5-------3h5-------5h7-------5h7----
E|--3-3----------------------------------------------------------------

G|---------------------------9----------------|
D|--5-----5-8-8------7-7---7---7---7-7--------| (and when she lets me
A|----5h7-------10\------7-------7------------|                slip away)
E|--------------------------------------------|

[ Tab from: http://www.guitartabs.cc/tabs/b/blur/beetlebum_btab.html ]
Chorus:
G|-------------------------------------------------------------------------
D|-10---12-10--------9---9-10-9----------7---7---7-------------------------
A|--------------10----------------9----------------7---10---8-----3-3-5-5--
E|-------------------------------------------------------------------------

G|-----------------------------------------------------|-----
D|---------------3---3-5-5-3-3-5-5-6-6-0-0-------------|-----
A|-0---3-5---0-----------------------------3-3-5-5-3-3-|--3--
E|-----------------------------------------------------|-----


Outro: (there are a few variations done on this on the different repeats)
G|----------------------------9----------------------------------------
D|------------------7-7-----7---7------------------------------------0-
A|--7-0-----7-0---------7h9-------7\---3-3-------------3-3---3-----3---
E|---------------------------------------------3-3-------------3-3-----

G|--------------------------------5------------------------------
D|--3h5-3-----3---3-----3-3-----3---3-----3-5-5-----5---5-----5--
A|--------3h5---------------3h5-------3h5-------5h7-------5h7----
E|---------------------------------------------------------------

G|--------------------|-----
D|--5-----5-8-8-------|--7--
A|----5h7-------10\---|-----
E|--------------------|-----

Comments