Blur - Battery In Your Leg Chords & Tabs

 

Battery In Your Leg Chords & Tabs

Blur Chords & Tabs

Version: 1 Type: Tab 0 ratings
1 star 2 stars 3 stars 4 stars 5 stars
comments

Battery In Your Leg Tab

E/--------------------------------------
B/--6--5--------------------------------
G/--------4--5--------------------------
D/--------------5--3--2-----------------
A/-----------------------3--------------
E/--------------------------3--1--0--1--



E/--------------------------
B/--6--5--------------------
G/--------4--5--------------
D/--------------5--3--2-----
A/-----------------------3--
E/--------------------------

[ Tab from: http://www.guitartabs.cc/tabs/b/blur/battery_in_your_leg_tab.html ]
E/-----------------------------------------
B/--6--5-----------------------------------
G/--------4--5-----------------------------
D/--------------5--3--2--------------------
A/-----------------------3-----------------
E/--------------------------3--1--0--1--3--


E/--------------------------
B/--6--5--------------------
G/--------4--5--------------
D/--------------5--3--2-----
A/-----------------------3--
E/--------------------------
Comments