Blur - Bang Chords & Tabs

 

Bang Chords & Tabs

Blur Chords & Tabs

Version: 1 Type: Tab 0 ratings
1 star 2 stars 3 stars 4 stars 5 stars
comments

Bang Tab

Blur - Bang  

Tab made by Niels Hoogendoorn
            nieps1@hotmail.com

 Intro (with tremolo on background)    
            4x             4x
e-----------------//------------------//
B-------------4---//--------------4---//
G------------4-4--//-----------2h4-4--//
D---------2h4---4-//--------2h4-----4-//
A-0h2-0-2---------//-0h2-0-2----------//
E-----------------//------------------//

   1x
e----------------/----------------/---------------/---------------------//
B----------------/-------------9--/---------------/---------------------//
G--/8-8-8-8-8h9p8/-s/6---6---7---9/----6-6-6-6--6-/------8-8-8-8h9p8h9p8//
D-s/9--9---9-----/--/7--7-----7---/-s/7-7-7---7--7/-s/9-9-9---9---------//
A----------------/----------------/---------------/---------------------//
E----------------/----------------/---------------/---------------------//
[ Tab from: http://www.guitartabs.cc/tabs/b/blur/bang_tab.html ]
   4x    (= verse)
e--10p7----7/-------------/---------------/---------------------//
B------10p7-/-----------9-/---------------/---------------------//
G-----------/-s/6--6--7--9/----6-6-6-6--6-/------8-8-8-8h9p8h9p8//
D-9---------/--/7-7----7--/-s/7-7-7---7--7/-s/9-9-9---9---------//
A-----------/-------------/---------------/---------------------//
E-----------/-------------/---------------/---------------------//

     2x  (= chorus)
e-12-12-12--9--7-/7-------------/-5-------------/--------------//
B-10-10-10--9--7-/7-------------/-5-------------/--9--s/-9-s/-9//
G--9--9--9--9--8-/8--8-8-8-8h9p8/-6---6-9-9-6---/---9-s/9--s/9-//
D--------------9-/9-9-9---9-----/-7--7-7-----9-7/-9---s/9--s/9-//
A--------------9-/9-------------/-7-------------/--------------//
E--------------7-/7-------------/-5-------------/--------------//

Then there is a solo somewhere, but that one is played by a second guitar.

Outro

e-7--
B-7--
G-8--
D-9--
A-9--
E-7--
Comments