Blunt James - You`re Beautiful (100% Right) Chords & Tabs

 

You`re Beautiful (100% Right) Chords & Tabs

Blunt James Chords & Tabs

Version: 1 Type: Tab 4 ratings
1 star 2 stars 3 stars 4 stars 5 stars
comments

You`re Beautiful (100% Right) Tab

James Blunt
You`re beautiful
Tabbed by myatvrocks

capo 6th fret. 

E----3-------------
B----3-------------
G------------------
D------------------
A----2-------------
E----3-------------

[ Tab from: http://www.guitartabs.cc/tabs/b/blunt_james/youre_beautiful_100_right_tab.html ]
E-------3----------
B-------3----------
G-------2----------
D------------------
A------------------
E-------2----------

E-------3----------
B-------3----------
G------------------
D-------2----------
A-------3----------
E------------------

I know this is right cause I watched James him self play this song on tv. 
Comments