Blunt - Fire Within Chords & Tabs

 

Fire Within Chords & Tabs

Blunt Chords & Tabs

Version: 1 Type: Tab 0 ratings
1 star 2 stars 3 stars 4 stars 5 stars
comments

Fire Within Tab

BAND: BLUNT
Song: FIRE WITHIN 


THIS IS THE 100% FULLY FINNISHED VERSION OF THE SONG.
SUBMITTED BY PETER, LEAD GUITARIST FROM BLUNT. IF YOU ARE A RHYTHM
OR BASS GUITARIST WE WILL HAVE THOSE VERSIONS OF THIS SONG UP SOON WITHIN A
MONTH OR 2, HOPEFULLY

(This is our first song EVER, ENJOY.)

~~~~~ Means Whamme Bar

Lead Guitar part


INTRO (CLEAN)

e--------------------------------------------------------------------
b--------------------------------------------------------------------
g--------------------------------------------------------------------
d------4----------------4-----------------4-----5--------6-----------
a----2----2----2-----2-----2-----------2------5-------4--------------
e--0--------0-----2-----------4--2--0-------5------2-------2---4/6---  


VERSE 1 (CLEAN)

e--------------------------------------------------------------------
b--------------------------------------------------------------------
g--------------------------------------------------------------------
d------4----4-4-----------6--6-6---------5--5-5------4----4-4--------
a----2---2--2-2--4-4----4----4-4--6----5----5-5----2---2--2-2--4-4---
e--0-------------4-4--0-----------6--5------5-5--0-------------4-4---      

e--------------------------------
b--------------------------------
g------------------------(pick)--
d------6--6-6-------------6--5---
a----4----4-4--6----6--6--6------
e--0-----------6--6----6---------

CHORUS 1x then play solo (distortion kicks in)

e-------------------------------------------------------------
b-------------------------------------------------------------
g------------------------------------------------------------- 
d----5---5-5----7-7-------9-9-----------------5-5------------- 
a---5----5-5----7-7--7-7--9-9--9-9--7-7--5-5--5-5--5--3--0----
e--5-----5-5----5-5--7-7--7-7--9-9--7-7--5-5--3-3--5--3--0----

SOLO 1(still distorted)

e--------------------------5/8----8------------------     
b---------------------5/8----------------------------     
g----------------5/7-----------------5/7---7--12-----
d-----------5/7--------------------------------------
a-------5/7--------------(QUAVERS)-------------------
e---5/7----------------------------------------------

e------12------15-------12-----------  
b--12------12-------12-------12---15-   
g-------(SEMI-QUAVERS)---------------
d------------------------------------
a------------------------------------
e------------------------------------
    
e------------------------------------
b------------------------------------
g------12------15-------12-----------  
d--12------12-------12-------12--15--
a---------(QUAVERS)------------------
e------------------------------------

e------12------15-------12---------]------------------------------ 
b--12------12-------12------12--15-]-15-15/17--19-17-15 ~~~~~~~~~~  
g----------------------------------]------------------------------
d--------(SEMI QUAVERS)------------]-----------(QUAVERS)----------
a----------------------------------]------------------------------
e----------------------------------]------------------------------


VERSE 2 (Clean)

e--------------------------------
b--------------------------------
g--------------------------------
d------6-----------------6-------
a----4----4----4------4-----4----
e--0--------0-----0-0----------0-


e-------------------------------------------
b-------------------------------------------
g-------------------------------------------
d-----------4-----5--------6----------------
a--------2------5-------4-------------------
e--2--0-------5------2-------2---4/6---6-4--




CHORUS (DISTORTION)

[ Tab from: http://www.guitartabs.cc/tabs/b/blunt/fire_within_tab.html ]
e----------------------------------------------
b----------------------------------------------
g----------------------------------------------
d--7-7-------9-9-----------------5-5-----------
a--7-7--7-7--9-9--9-9--7-7--5-5--5-5--5--3--0--
e--5-5--7-7--7-7--9-9--7-7--5-5--3-3--5--3--0--
                                                   
e--------------------------------------
b--------------------------------------
g--------------------------------------
d----7-------7-------------(quavers)---
a----7----7--7--5--3--0-----5--3--0----
e----5----7--5--5--3--0-----5--3--0----
     1+2+              1+2+  


VERSE 3 (Distorted)     


e---------------------------------------------------
b---------------------------------------------------
d---------------------------------------------------
g--4-4--6-6-------2-2--4-4--------------------------
a--6-6--4-4--6-6--4-4--2-2--4-4--0--4-4/6--6--4--0--
e------------6-6------------4-4--0--4-4/6--6--4--0--

CHORUS (DISTORTED)


e-----------------------------------------------------------
b-----------------------------------------------------------
g-----------------------------------------------------------
d------5---5-5---7-7-------9-9-----------------5-5----------
a----5-----5-5---7-7--7-7--9-9--9-9--7-7--5-5--5-5--5--3--0-
e--5-------5-5---5-5--7-7--7-7--9-9--7-7--5-5--3-3--5--3--0-

SOLO 2 (DISTORTED)

e--17--12--15--10-10--12-10--------------------------
b----------------------------12-10-------------------
g-----------------------------------12-10--10/12-----
d----------------------------------------------------
a----------------------------------------------------
e----------------------------------------------------

e------12------15-------12-----------  
b--12------12-------12-------12---15-   
g-------(SEMI-QUAVERS)---------------
d------------------------------------
a------------------------------------
e------------------------------------

e-----------------------12/15--17-15-12--
b--15------------12/15-------------------
g-----12--12/14--------------------------
d----------------------------------------
a----------------------------------------
e----------------------------------------

e------12------15-------12-----------  
b--12------12-------12-------12---15-   
g-------(SEMI-QUAVERS)---------------
d------------------------------------
a------------------------------------
e------------------------------------
    
e------------------------------------
b------------------------------------
g------12------15-------12-----------  
d--12------12-------12-------12--15--
a---------(QUAVERS)------------------
e------------------------------------

e------12------15-------12---------]--------------------------
b--12------12-------12------12--15-]-15-15/17--19-17-15 ~~~~~~    
g----------------------------------]--------------------------
d--------(SEMI QUAVERS)------------]-----------(QUAVERS)------
a----------------------------------]--------------------------
e----------------------------------]--------------------------

SO THERE YOU HAVE IT THE FULL SONG

BLUNT

RHYTHM GUITAR, VOCALS       = STEVEN
LEAD GUITAR, BACK UP VOCALS = PETER
BASS GUITAR, BACK UP VOCALS = ALEX
DRUMS                       = RICHARD

Submitted by Peter, Lead Guitarist of the band Blunt from N.Z
You probably haven't heard this song yet because we haven't reccorded
it yet If you have any suggestions for any Lyrics to do with ANGER and sadness 
or any COMMENTS please write under in the COMMENT box. This is our first
song and we hope you hear it on the radio soon.


                    ANY COMMENTS TO THE COMMENT BOX ABOVE!

                                Thanx. man 57
Comments