Bluetones - The Fountainhead Intro Chords & Tabs

 

The Fountainhead Intro Chords & Tabs

Bluetones Chords & Tabs

Version: 1 Type: Chords 0 ratings
1 star 2 stars 3 stars 4 stars 5 stars
comments

The Fountainhead Intro Chords

   
#----------------------------------PLEASE NOTE--------------------------------#
#This file is the author's own work and represents their interpretation of the#
#song. You may only use this file for private study, scholarship, or research.#
#-----------------------------------------------------------------------------#
From: 'MAQUET, Frederic F.' 
Subject: Tab:  The Fountainhead by The Bluetones
Date: Tue, 17 Mar 1998 17:50:34 -0000
				The Fountainhead
				----------------
				by The Bluetones
		Tabbed by Frederic Maquet  (f.maquet@ic.ac.uk)

This is another great song of the 'Expecting to Fly' album.  If you like
it, email me and tell me about it with corrections/comments...
I hope the intro is accurate enough, but it sounds good!  The whole song
is played with two guitars, but you can survive with just one!  The
rythm is
a bit hard though, so you'll have to listen to the song to get it right.
For more Exclusive Tabs, check out my Guitar Page:
http://www.geocities.com/SunsetStrip/3224/guitar.html
[ Tab from: http://www.guitartabs.cc/tabs/b/bluetones/the_fountainhead_intro_crd.html ]
Intro/Verse:
------------
   Em7E   E        Esus4 E     Am- Am             G     A
e:----0---0-0--0---0-00--0--|--0---0---0---0------3-3---0--|
B:----0---0-0--0---0-00--0--|--1---1---1---1------3-3---2--|
G:--0h1---1-1--1-1h2-22--1--|--1h2-2---1h2-2------0-0---2--|
D:--0h2---2-2--2---2-22--2--|--2---2---2---2------0-0---2--|
A:--2-2---2-2--2---2-22--2--|--0---0---0---0------2-2---0--|
E:--0-0---0-0--0---0-00--0--|--0------------------3-3------|
						(slow)
    Esus bit again      Am-    Am        D5       A
e:----0--------------|--0---0--0---------------------|
B:----0--------------|--1---1--1---1-----3--3-3---2--|
G:--0h1--------------|--1h2-2--1h2-2-----2--2-2---2--|
D:--0h2---etc--------|--2---2--2---2-----0--0-0---2--|
A:--2-2--------------|--0------0---------0--0-0---0--|
E:--0-0--------------|--0------0---------------------|


-------
Play riff:
Em7  E	Esus  E   G   A
Cool bit: (slow single strums)
A  Asus4  A
A  Asus4  Am
A6 A6sus4 A6
Fast:
D  G A G A   (
Comments