Bluetones - Solomon Bites The Worm Chords & Tabs

 

Solomon Bites The Worm Chords & Tabs

Bluetones Chords & Tabs

Version: 1 Type: Tab 0 ratings
1 star 2 stars 3 stars 4 stars 5 stars
comments

Solomon Bites The Worm Tab

   
#----------------------------------PLEASE NOTE--------------------------------#
#This file is the author's own work and represents their interpretation of the#
#song. You may only use this file for private study, scholarship, or research.#
#-----------------------------------------------------------------------------#
Date: Tue, 05 May 1998 11:36:18 +0100
From: '\'Mr Frederic F. MAQUET\' 
Subject: b/bluetones/solomon_bites_the_worm.tab
Solomon Bites the Worm - by The Bluetones
			----------------
			Tabbed by Frederic Maquet

This is the first single from the 'Return to the Last Chance Saloon'
album.  The riff is v.cool...I hope you find this tab satisfying....

E-mail corrections, etc... to f.maquet@ic.ac.uk
For more Exclusive Tabs, go to:
http://www.geocities.com/SunsetStrip/3224/guitar.html
[ Tab from: http://www.guitartabs.cc/tabs/b/bluetones/solomon_bites_the_worm_tab.html ]
Intro riff:
-----------
     A
e:---------------------------------------|
B:---------------------------------------|
G:---2---------0--------2---------0------|x6
D:---2------------------2----------------|with
A:---0---3h4------3h4---0----3h4---------|spanish words
E:-----------------------------------3h4-|
Aye hombre hippa, vamos vamos!  etc...
                   G/A
                     G/B
     D    D/F# D/G     G/C       Second time, end with:
e:---2----2----2---3-3-3---|--|--------------------------|
B:---3----3----3---3-3-3---|--|--1h3p1-0-----------------|
G:---2----2----2---0-0-0---|--|----------0h2p0-----------|
D:---0----0----0---0-0-0---|x2|----------------0h2p0-----|
A:--------x----x---0-2-3---|--|----------------------0h3-|
E:--------2----3-----------|--|--------------------------|
	  Use thumb...
intro riff x2
Verse Riff:
-----------
    A             D         C        Intro Riff 
e:-----------0--------------------|-----------------------------|
B:-----------2----3---3-----1---1-|-----------------------------|
G:--2--------2----2---2-----0---0-|--2------0------2-----0------|
D:--2--------2----0---0-----2---2-|--2-------------2------------|
A:--0---3h4--0--------------3---3-|--0--3h4---3h4--0-3h4--------|
E:--------------------------------|-------------------------3h4-|

Verse 2
--------

Break:
------
F#m	       A		 D    Dm      A
  Pack up your troubles now, Take all you can carry
	F#m	  A	    E (pause)
On your way, your way, just remember this time, 
       G	D     A A G A(solo)
You've only got seven days
Solo:
-----			     G	 play this x3 with variations
   A   G      A   |-------------------|
e:-------|--|----------------3-----------------|----|
B:-------|--|-----------1h3--3---3p1-----------|----|
G:-2-2-0-|x3|-2-2--0h2-------0--------2--0--2--|-x2-|
D:-2-2-0-|--|-2-2--0------------------2--0--2--|----|
A:-0-0-0-|--|-0-0------------------------------|----|
E:-------|--|----------------------------------|----|
Verse 3: (chords from second bit of  verse 1)
--------

e:-----------|
B:----5p3--2-|
G:---------2-|
D:---------2-|
A:---------0-|
E:-----------|
seven      days....
End
Some chords:
F#m  	244222
D	x00232
Dm	x00231
E	022100

Thanks to Collen Chandler for sending me the intro...
Hope this stuff was correct...the solo's a bit -ish...

^Z
-- 
Frederic Maquet
Webpage: http://www.geocities.com/SunsetStrip/3224/
**********************
Comments