Bluetones - Nifkins Bridge Chords & Tabs

 

Nifkins Bridge Chords & Tabs

Bluetones Chords & Tabs

Version: 1 Type: Tab 0 ratings
1 star 2 stars 3 stars 4 stars 5 stars
comments

Nifkins Bridge Tab

   
#----------------------------------PLEASE NOTE--------------------------------#
#This file is the author's own work and represents their interpretation of the#
#song. You may only use this file for private study, scholarship, or research.#
#-----------------------------------------------------------------------------#
Date: Tue, 17 Mar 1998 17:26:36 -0500
From: 'MAQUET, Frederic F.'  (by way of cal woods)
Subject: Tab: Nifkin's Bridge by The Bluetones
		Nifkin's Bridge by The Bluetones
				-----------------
				Tabbed by Frederic Maquet

B-side from the single 'Marblehead Johnson'.  This is a rather nice
acoustic number which goes more+more electric as the song goes.
For more Exclusive Tabs go to:
http://www.geocities.com/SunsetStrip/3224/guitar.html
Intro:
------
   Em
e:----------0--------0--------0---------------|----|----------0--------0
--|
B:----0--------0--------0--------0---0---0--0-|----|----0--------0------
--|
G:-------0--------0--------0-------0----------|----|-------0--------0---
--|
D:-------------------2--------2---------------|-x3-|-------------------2
--|
A:--------------------------------------3--2--|----|--------------------
--|
E:-0------------------------------------------|----|-0------------------
--|
[ Tab from: http://www.guitartabs.cc/tabs/b/bluetones/nifkins_bridge_tab.html ]
Verse 1:
--------
    Em
e:-----------7----------3----------5----------2----------2----------2-|
B:-----0----------0----------0----------0----------0----------0-------|
G:--------0----------0----------0----------0----------0----------0----|
D:--------------------------------------------------------------------|
A:--------------------------------------------------------------------|
E:--0-----------------------------------------------------------------|
     In this town the   people     can be     ignorant   and
cruel
e:----------------|
B:----0---0--0--0-|
G:------0---------|
D:----------------|
A:----------3--2--|
E:----------------|
Chorus:
-------
         C                            Em7                     end
Twiddle
e:-------------------0----------|--|----------0----------|--|-----------
|
B:-------------1--------1-----1-|--|----3--------3-----3-|--|--0h1p0----
|
G:----------0-----0--------0----|--|-------0--------0----|--|---------0-
|
D:------------------------------|x2|---------------------|x2|-----------
|
A:-3--2--3----------------------|--|--2------------------|--|-----------
|
E:------------------------------|--|---------------------|--|-----------
|

Verse 2:  (same progression as verse1)
--------

Chorus 2:(same as chorus 1)
---------
Bridge:                            Played at end of bridge
-------                            Emadd9      (electric)
e:--0-----3-----5----7--7--5--3--|----------------|----------|
B:--0-----0-----0----0--0--0--0--|----------------|----------|
G:--0-----0-----0----0--0--0--0--|-----------0----|----------|
D:--2-----2-----x----x--x--x--x--|-----4--------4-|-x3-------|
A:--2-----2-----x----x--x--x--x--|--2-----2-------|----------|
E:--0-----------0----0--0--0--0--|----------------|----------|

Verse 3: (same as verse 1)
--------

Chorus 3: (same progression as chorus 1)
---------

End Riff: (distorted electric:)
---------
Em   C     F    F  C Em
/ // // /  / // // / /
Over acoustic chords:
     Em             C            F?          C     Em
e:-----------------------------------------------------|---|
B:-------------------------------------------1--1--0---|---|
G:---------0--------------0------------0---------------|---|
D:------2-----2--------2-----2------3-----3------------|x10|
A:---2--------------3------------3---------------------|---|
E:-----------------------------------------------------|---|
fade out

Chords:
Em	022000
Em7	022030 or 020000
Emadd9	024000
C	032010
F	133211
F?	133011  (use your thumb one the low e-string)

E-mail corrections/comments etc.. to f.maquet@ic.ac.uk

Comments