Bluetones - Glad To See Y Back Again Solo Chords & Tabs

 

Glad To See Y Back Again Solo Chords & Tabs

Bluetones Chords & Tabs

Version: 1 Type: Tab 0 ratings
1 star 2 stars 3 stars 4 stars 5 stars
comments

Glad To See Y Back Again Solo Tab

   
The Bluetones - Glad To See Y'Back Again
(B-Side to Bluetonic)

Intro:

e---0---0-------------------0-----------------0----------0---0--------------0---5p4--------0------------5---
b---0---0------------0--2------2--2-----2-----2----------0---0----------0--------------0---2-------2----2---
g---1---1----2-/-4-------------2--2-----------2----------1---1---0h1-----------------------2------------2---
d---2---2----------------------2--2-----------2----------2---2-----------------------------2------------2---
a---2---2----------------------0--0-----------0----------2---2-----------------------------0------------0---
E---0---0------------------------------------------------0---0----------------------------------------------


Solo
(This isn't exactly it but it's a good start)
[ Tab from: http://www.guitartabs.cc/tabs/b/bluetones/glad_to_see_y_back_again_solo_tab.html ]
      E       G        A        G                   E         G        A        G         
e-----------------------------------------3-----------------------------------------------------------------
b-------------------------------5p3h5p3h5-------------------------------------------------------------------
g-----------------------------------------------------------------------------------------------9-----------
d------------------------------------------------------------5------------------12p10h12p10h12--------------
a----7-----------------------------------------------7--------7/10-----12-----------------------------------
E-------------3--------5------------------------------------------------------------------------------------

      E                G           A             G                        E       G     A             G
e---------------------------------------------------------------------------------12----5(hold)------3--3---  
b---------------------8----8----8h10-------------10b12---12b10---8-----------------------------------3--3---
g----/9--9--9p7h9-------------9--------------------------------------9--7--9-------------------------0--0---
d----------------------------------------------------------------------------------------------------0--0---
a----------------------------------------------------------------------------------------------------2--2---
E----------------------------------------------------------------------------------------------------3--3---




Note- that E to Em could just be implied by the bass but it sounds alright when you make the chords.
craigmckibbin@hotmail.com
Comments