Bluetones - Blue Tonic Chords & Tabs

 

Blue Tonic Chords & Tabs

Bluetones Chords & Tabs

Version: 1 Type: Tab 0 ratings
1 star 2 stars 3 stars 4 stars 5 stars
comments

Blue Tonic Tab

   
#----------------------------------PLEASE NOTE---------------------------------#
#This file is the author's own work and represents their interpretation of the #
#song. You may only use this file for private study, scholarship, or research. #
#------------------------------------------------------------------------------##
Date: Thu, 23 Nov 95 10:56:03 GMT
From: Adrian Paul Austin 
Here's some TAB by the Bluetones. I don't know if
you've heard of them but their big in the UK.
I've also have 'Sad Song' and 'Half A World Away'
by OASIS if you want them.
********************************************************************************
BLUE TONIC by the Bluetones
Transcribed by Adrian Austin... austina5@cs.man.ac.uk

[CHORDS]
Am	002210
F	133211
C	032010
Cadd9	032030
G	355433
Gb	244322
D	xx0232
E	022100
Esus4	022200
[TAB KEY]
h	ahb	Play note a, hammer onto b.
/	a/b	Play note a, slide to b.
~	a~	Vibrato on a.
b       ab      Play note a and then bend fully.
[ Tab from: http://www.guitartabs.cc/tabs/b/bluetones/blue_tonic_tab.html ]
[INTRO]
Am Am Am Am F F Esus4 E C F C F G G G G
    Am                       F           Esus4    E
E-------------------------------------------------------
B-------------------------------------------------------
G-------------------------------------------------7b----
D---------------------------------------------7-------7-
A-------------------7~-------5/7-8~-------5/7---7-------
E---0-3b-0-3b-0-3b--------------------------------------
    C  F  C  F      G                       Am
E-------------------------------------------0---
B-------------------------------------------1---
G-------------------------------------------2---
D-------------------------------------------2---
A---3~--------2h3-2-------------------------0---
E-------------------3~------0-3b-0-3b-0-3b--x---
NB - There is a picking pattern during C F C F section but
     I dont know what it is.

[VERSE]
[CHORUS]
a
There's no heart you can't melt,
Cadd9                 C
with a certain little smile.
F                                      Esus4
No challenge should be faced without a little charm,
      E
and a lot of style.
a
Don't put your faith in time,
    Cadd9             C
she heals but doesn't change,
F                              Esus4              E 
and only a fool won't take the chance to stay the same.

[VERSE]
[CHORUS]
[SOLO]
   a             Cadd9            C                F
E-------------------------------------------------------
B-------------------------------------------------------
G--------------5----------------------------------------
D--7~------5/7-----------------5----7---5---------------
A----------------7~--------5/7----7---5-----7------3~---
E-----------------------------------------8---7---------
              Esus4          E       a
E-------------------------------------------------------
B----------------------------------------------12-13-15-
G----5~----4~------------------------14--14-14----------
D-----------------5----------6--------------------------
A-------------5/7----5/7/5/7----------------------------
E-------------------------------------------------------
            Cadd9        C                        F
E--------------------------------12-----------------12--
B--13-12-----------------------12--------------------12-
G--------14-------12-----12h14------12---12-------------
D-----------12/14----14----------------14---14-12-------
A-------------------------------------------------15----
E-------------------------------------------------------
                       Esus4    E
E-----------------------------------------
B-----------------------------------------
G-----------------------------------------
D--12h14-12---------------------------5---
A-----------15-14------7-5------3/7-7---7-
E--------------------------8-7------------

Comments