Bluetones - After Hours Solo Chords & Tabs

 

After Hours Solo Chords & Tabs

Bluetones Chords & Tabs

Version: 1 Type: Tab 0 ratings
1 star 2 stars 3 stars 4 stars 5 stars
comments

After Hours Solo Tab

artist : the bluetones
song : after hours [just the solo]
tabbed by greg nash [ meanthane@hotmail.com ]



this is my favourite bluetones song, and i'm a huge fan you know...
[ Tab from: http://www.guitartabs.cc/tabs/b/bluetones/after_hours_solo_tab.html ]
E -------------------------------------------------------------------------
A -------------------------------------------------------------------------
D --7h9---------------------9-8-7------------------------------------------
G ----7-9/11---9~~7h9p7-9~~-------9^10---10^9-7------------9p7-9-----------
B -----------10------------------------10-------10p8p7-8p7-----------------
e -------------------------------------------------------------------------

E -------------------------------------------------------------------------
A -------------------------------------------------------------------------
D --7h9--------------------------------------------------------------------
G ----7-9/11---9~~---7----------------------------------------------9p7-9--
B -----------10--------8-10~---12h14--14-12h14-12-12^-10--10p8p7-8p7-------
e ----------------------------------12-------------------------------------
Comments