Bluetones - 4 Day Weekend Chords & Tabs

 

4 Day Weekend Chords & Tabs

Bluetones Chords & Tabs

Version: 1 Type: Tab 0 ratings
1 star 2 stars 3 stars 4 stars 5 stars
comments

4 Day Weekend Tab

   
#----------------------------------PLEASE NOTE--------------------------------#
#This file is the author's own work and represents their interpretation of the#
#song. You may only use this file for private study, scholarship, or research.#
#-----------------------------------------------------------------------------#
From: 'MAQUET, Frederic F.' 
Subject: b/bluetones/4_day_weekend.tab
Date: Fri, 22 May 1998 17:35:36 +0100
		4 Day Weekend - by The Bluetones
			----------------
			Tabbed by Frederic Maquet
This is quite a nice little song (especially the intro) from the
'Return to the Last Chance Saloon' album.. hope you like it...
The chorus sounds a bit like Hey Joe for a bit...
For more exclusive Guitar Tabs, go to:
http://www.geocities.com/SunsetStrip/3224/guitar.html
Email me corrections/comments etc...  f.maquet@ic.ac.uk
[ Tab from: http://www.guitartabs.cc/tabs/b/bluetones/4_day_weekend_tab.html ]
Intro: (clean guitar)
------
The fingerpicking here is approximate, fingerpick each chord twice,
in the same way...(except for the D Dm at the end, once each).
   A                Am               G               Dsus2
e:-------0-----0----------0-----0-|---------------------------0----|
B:----2-----2----------1-----1----|--------3-----3---------3-----3-|
G:--------2-----------------2-----|-----0-----0---------2----------|
D:--------------------------------|------------------0-------------|
A:-0----------------0-------------|--------------------------------|
E:--------------------------------|--3-----------------------------|
   A     Am    G    Dsus2        Dm	 (let ring)
e:------------------------0---------------5-|
B:---------------------3-----3---------6----|
G:------------------2---------------7-------|
D:-------------------------------0----------|
A:------------------------------------------|
E:------------------------------------------|

Verse:(distorted)
-----------------
   A     A    C                G                D
e:---------------------------|-3--3---------------------------------|
B:-2--0--2----1--1-----------|-3--3--------------3--3--3--0h1p0-----|
G:-2--0--2----0--0--0--2--2--|-0--0---0--2--2----2--2------------2h0|
D:-2--0--2----2--2--0--0--0--|-0--0---0--0--0----0--0---------------|
A:-0--0--0----3--3-----------|-2--2---------------------------------|
E:---------------------------|-3--3---------------------------------|
Chorus: (distorted)
-------
Note: this is half of the ascending bass run of Hey Joe, the
Jimi Hendrix version!
     A          C           G
e:------------------------------------|
B:---2--2-----------------------------|
G:---2--2----------------0------------|x4
D:---2--2----------2--3--------------0|
A:---0--0-------3--------------2--3---|
E:--------------------------3---------|
A	       C     G	A		 C     G
 The future is deaaaad,  that's what she saaaaaid,
A		      	  C 	G
 It's all in your heaaad, you see, not mine, I'm fine
A		C    G
 I'm alive,  I've arrived

Verse 2: (same as verse 1)
--------

Play Chorus
-----------
Break:
------

Dm  G	A  (play verse chords)
Bye-bye love
Solo over verse chords:  lots of sliding and general noise...
----
Play chorusx2
-------------
E (strum 4 times, slowing down...then pause)
Verse 3: (slow, clean guitar as in intro)
--------
Comments