Blues Brothers - Messin With The Kid Chords & Tabs

 

Messin With The Kid Chords & Tabs

Blues Brothers Chords & Tabs

Version: 1 Type: Tab 0 ratings
1 star 2 stars 3 stars 4 stars 5 stars
comments

Messin With The Kid Tab

Blues Brothers "messin with the kid"  6 string or a 5 string

 intro
C -----------------------------------------|
G -----------------------------------------|
D -----------------------------------------|
A -----------------------------------------|
E --7-------------------10-9-7------7------|
B ---------------------------------10------|
[ Tab from: http://www.guitartabs.cc/tabs/b/blues_brothers/messin_with_the_kid_tab.html ]
the Verse  1                                                       The Verse
2
C---------------------------------------------------------------|  R
                           C------------------------------------|  R
G---------------------------------------------------------------|  E
                           G----------7----7---9----------------| E
D---------------7----7--9---------------------------------------|  P
                           D-------9----9-----------------------| P
A-----------9-----9---------------------------------------------|  E
                           A---7--------------------------------| E
E------7--------------------------------------------------------|  A
                           E------------------------------------| A
B------------------------------------  T------------------------|  4X
                      B----------------------------------- T----|  2X

then play the verse Part 1 again, but only 2 times


C------------------------------------------------------------|
G-----------9------9---11--------------7-----7----9----------|
D------11-----11--------------------9-----9------------------|
A---9---------------------------7----------------------------|
E------------------------------------------------------------|
B------------------------------------------------------------|


you are going to play these more than once

                                                               by
JVoorhees@aol
Comments