Blues Brothers - Gimme Some Lovin Chords & Tabs

 

Gimme Some Lovin Chords & Tabs

Blues Brothers Chords & Tabs

Version: 1 Type: Bass Tab 0 ratings
1 star 2 stars 3 stars 4 stars 5 stars
comments

Gimme Some Lovin Bass Tab

Song: Gimme Some Lovin'
Artist: Blues Brothers
Bassist: Donald "Duck" Dunn (I think...)

Standard tuning

Intro
G|----------------|
D|----------------|
A|-7-7-7-7-7------|
E|------------0---|

Verse
G|--------------------------------|
D|--------------------------------|
A|-7-5-7-5-7------7-5-7-5-7-4-5-6-| [x8]
E|-----------0--------------------|
[ Tab from: http://www.guitartabs.cc/tabs/b/blues_brothers/gimme_some_lovin_btab.html ]
Bridge
G|-------------------------------------------------------------------------------|
D|-----------------------------------------7-7-7-7-7-7-7-10-10-10-10-10-10-10-10-|
A|-7-7-7-7-7-7-7-10-10-10-10-10-10-10-10-----------------------------------------|
E|-------------------------------------------------------------------------------|

Chorus ["Gimme some lovin' (Gimme some lovin')"]
G|---------------------------------|
D|-------------------------------7-|
A|-7-7-7-7-7-----------------------|
E|------------0-------5-5-5-5-5----|

For the outro repeat the intro
Comments