Blues Brothers - Everybody Needs Somebody Chords & Tabs

 

Everybody Needs Somebody Chords & Tabs

Blues Brothers Chords & Tabs

Version: 1 Type: Bass Tab 0 ratings
1 star 2 stars 3 stars 4 stars 5 stars
comments

Everybody Needs Somebody Bass Tab

---------------------------------------------------------------------------|
---------------------------------------------------------------------------|
-3-3-----1-1---------------------------------------------------------------|
-----1-1-----1-1-----------------------------------------------------------|x 14

[ Tab from: http://www.guitartabs.cc/tabs/b/blues_brothers/everybody_needs_somebody_btab.html ]
(Do this when "Sometimes I feel" is sang".)
---------------------------------------------------------------------------|
---------------------------------------------------------5-3---------------|
-0-0-0-0-0-0-0-----------------------------------------------7-5-----------|
---------------3-1-1-1-1-1-1-3-4-5-5-5-5-5-5-5-5-3-3-3-3-------------------|

---------------------------------------------------------------------------|
---------------------------------------------------------------------------|
-3-3-----1-1---------------------------------------------------------------|
-----1-1-----1-1-----------------------------------------------------------|
(Until "You know ladies and gentleman when you do find that special someone". Then 
Once speech finishes continue until end.)
Comments