Bluemind - Squire Chords & Tabs

 

Squire Chords & Tabs

Bluemind Chords & Tabs

Version: 1 Type: Tab 0 ratings
1 star 2 stars 3 stars 4 stars 5 stars
comments

Squire Tab

Blue-mind – squire 
Tabbed by Daniel Ramirez
danymanylany@hotmail.com
     Intro (plain)
e---------------------------------------------------------------------------------------
b---------------------------------------------------------------------------------------
g---------------------------------------------------------------------------------------
d-----4-4—x16---2-2—x16----------------2-2—x8---4-4—x16-------------
a-----2-2—x16---2-2—x16---4-4—x8---2-2—x8---4-4—x16-------------
E-----------------------------------2-2—x8------------------------------------------
      Verse Riff  (x2) (distortion)
e---------------------------------------------------------------------------------------
b---------------------------------------------------------------------------------------
g---------------------------------------------------------------------------------------
d-----—4---2—1--------4--2--1----—-4--2--1--------1-------1----------------
a---2---—---—---—2---—---—---2----------------2-------2--------------------
E---------------------------------------------------------------------------------------
      Verse (x6) (distortion)
e---------------------------------------------------------------------------------------
b---------------------------------------------------------------------------------------
g---------------------------------------------------------------------------------------
d-----4--4---x8-------------------2---2---x4---------------------------------------
a-----2--2---x8----4--4—x4----2---2---x4---------------------------------------
E--------------------2--2---x4-------------------------------------------------------
      Chorus (x1) (distortion)
e---------------------------------------------------------------------------------------
b---------------------------------------------------------------------------------------
g---------------------------------------------------------------------------------------
d-----4-4—x16---2-2—x16----------------2-2—x8---4-4—x16-------------
a-----2-2—x16---2-2—x16---4-4—x8---2-2—x8---4-4—x16-------------
E-----------------------------------2-2—x8------------------------------------------
      Verse Riff #2 (x2) (distortion)
e--------------------------------------------------------------------------------------
b--------------------------------------------------------------------------------------
g--------------------------------------------------------------------------------------
d-----—4---2—1--------4--2--1----—-4--2--1--------1-------1---------------
a---2---—---—---—2---—---—---2----------------2-------2-------------------
E--------------------------------------------------------------------------------------
       Verse #2 (x2) (distortion) (Then goes the bass and the drums) 
e--------------------------------------------------------------------------------------
b--------------------------------------------------------------------------------------
g--------------------------------------------------------------------------------------
d-----4--4---x8-------------------2---2---x4--------------------------------------
a-----2--2---x8----4--4—x4----2---2---x4-------------------------------------
E--------------------2--2---x4-----------------------------------------------------

      Chorus #2 (x1) (distortion)
e-------------------------------------------------------------------------------------
b-------------------------------------------------------------------------------------
g-------------------------------------------------------------------------------------
d-----4-4—x16---2-2—x16----------------2-2—x8---4-4—x16-------------
a-----2-2—x16---2-2—x16---4-4—x8---2-2—x8---4-4—x16------------
E-----------------------------------2-2—x8-----------------------------------------
        Verse Riff #3 (3) (distortion)  (until the end) 
e---------------------------------------------------------------------------------------
b---------------------------------------------------------------------------------------
g-----------5--------------------------------------------------------------------------
d-----—------4--------4-5---5-5-5---4-5-7---------------------------------------
a-----5-5---------0-0----------------------------------------------------------------
E---------------------------------------------------------------------------------------


[ Tab from: http://www.guitartabs.cc/tabs/b/bluemind/squire_tab.html ]
Comments