Blue Rodeo - Five Days In May Guitar Solo Chords & Tabs

 

Five Days In May Guitar Solo Chords & Tabs

Blue Rodeo Chords & Tabs

Version: 1 Type: Tab 0 ratings
1 star 2 stars 3 stars 4 stars 5 stars
comments

Five Days In May Guitar Solo Tab

   
Tab written by: Jeremy Percival
Send Corrections to: jpercivalottawa@hotmail.com

h=hammer-on
p=pull-off
~~=vibrato
b=bend string to the number indicated to the right
A.h.=Artificial harmonic
P.M.=Palm Mute


						P.M.
e|--------------------------------------------------------------|
B|--------------------------------------------------------------|
G|--------------------------------------------------------------|
D|--------------------------------4b5b4---2------0--2----4-5-4--|
A|----------------------2b3b2-----------------------------------|
E|-0-0------2b3b2-----------------------------------------------|

e|--------------------------------------------------------------|
B|--------------------------------------------------------------|
G|--------------------------------------------------------------|
D|-5/7--7~~~------4h5-4-4\2---0h2-2-0-----------------0h2p0-2~~-|
A|------------------------------------2-0-2~~-----0h2-----------|
E|--------------------------------------------------------------|

e|--------------------------------------------------------------|
B|--------------------------------------------------------------|
G|--------------------------------------------------------------|
D|-4h5-4-4h5-4~~-----2/4--4/5--5/7--7-7~-------4h5-4--2---------|
A|--------------------------------------------------------------|
E|--------------------------------------------------------------|


(5:05)
e|--------------------------------------------------------------|
B|----------------------------------------14---16-14------------|
G|----------------------------------------14---16-14------------|
D|-10h12--12h14~~---------12-14--14~~---------------------------|
A|------------------12h14---------------------------------------|
E|--------------------------------------------------------------|

e|--------------------------------------------------------------|
B|---------------12--------12-----------------------------------|
G|------12-------14b16b14--14b16--12-------------12-------------|
D|-14~~----14------------------------14-12-14-14----------------|
A|--------------------------------------------------------------|
E|--------------------------------------------------------------|

			 A.H.------|	    A.H.----------------|
e|--------------------------------------------------------------|
B|--------------------------------------------------------------|
G|----------------12-14-14b16b14-12--------14b16b14--12---------|
D|-12-12-12-12h14-------------------14------------------14-12-14|
A|--------------------------------------------------------------|
E|--------------------------------------------------------------|
[ Tab from: http://www.guitartabs.cc/tabs/b/blue_rodeo/five_days_in_may_guitar_solo_tab.html ]
		    hold (slow release)
e|--------------------------------------------------------------|
B|-12--------------12-------------12----------------------------|
G|-14b16b14-12-----14b16-16-------14b16B14-12-------------------|
D|-------------14-----------------------------14-12h14-------14-|
A|-----------------------------------------------------12-14----|
E|--------------------------------------------------------------|

e|--------------------------------------------------------------|
B|-12-----12----------------------------------------------------|
G|-14b16--14b16b14-12--------------14-12------------------------|
D|--------------------14-12h14-12--------14-12-14----12-14------|
A|--------------------------------------------------------------|
E|--------------------------------------------------------------|

e|--------------------------------------------------------------|
B|-12-----------------------------------------------------------|
G|-14b16b14-12--------------------------------------------------|
D|-------------12h14-14--12h14-14----------12-14-12-------------|
A|-----------------------------------12-14----------14----------|
E|--------------------------------------------------------------|


e|--------------------------------------------------------------|
B|--------------------------------------------------------------|
G|--------------------------------------------------------------|
D|-----------------------------------------------12-12h14-14----|
A|-12h14-14---14-14--14--14-14----12-12-12-12h14----------------|
E|--------------------------------------------------------------|

		  repeat 13 times
		  (hold on last)
e|--------------------------------------------------------------|
B|----------------12--------------------12------------15--------|
G|----------------14b16-----------------14b16b14--12------12~~~-|
D|-14-14--14-14-------------------------------------------------|
A|--------------------------------------------------------------|
E|--------------------------------------------------------------|


	       A.H.     A.H-----|
e|--------------------------------------------------------------|
B|--------------------------------------------------------------|
G|--------------------------------------------------------------|
D|----------------------12-14-14--------------------------------|
A|-12h14-14~~--10-----------------------------------------------|
E|----------------12~~------------------------------------------|

The rest is harmonics on strings d and g at 12th and 14th fret then...

    feedback
e|--------------------------------------------------------------|
B|--------------------------------------------------------------|
G|--------------------------------------------------------------|
D|--------------------------------------------------------------|
A|--------------------------------------------------------------|
E|-0--------2----3-5-------2h3-2--------------------------------|


Comments