Blue Oyster Cult - Harvest Moon Chords & Tabs

 

Harvest Moon Chords & Tabs

Blue Oyster Cult Chords & Tabs

Version: 1 Type: Tab 0 ratings
1 star 2 stars 3 stars 4 stars 5 stars
comments

Harvest Moon Tab

   
##################################################################################
# This file is the author's own work and represents their interpretation of the  #
# song. You may only use this file for private study, scholarship, or research.  #
##################################################################################

Title:Harvest moon
Artist:Blue Öyster Cult

INTRO

--5------5------3------4------------
------------------------------------
------------------------------------
------------------------------------
------------------------------------
------------------------------------

VERSE
[G]            [A]
This place--------------------------
[A]            [G]
The spanish-------------------------.
[G]            [A]
They burned-------------------------
[A]            [G]
They moved away---------------------
[G]            [A]
My grandma often told me------------
[A]            [G]
It is so peaceful here---------------.
[G]            [A]
The wars are gone clear--------------,
[A]            [G]
The war------------------------------
[ Tab from: http://www.guitartabs.cc/tabs/b/blue_oyster_cult/harvest_moon_tab.html ]
CHORUS
[A] [G]
Aaaaah
[A] [G]
When the winter
[A] [G]
Aaaaah
[A] [G]
And fall the leaves from the trees
[A] [G]
Aaaaah
[A]     [G]
Harvest moon
[A]                [G]
----------------------------
[G]      [A]
----------------------------
[A]     [G]
Harvest moon
[A]                [G]
----------------------------
[G]      [A]
Old people------------------
[A]     [G]
Harvest moon----------------
[A]                [G]
I said the darkness's clearing,
[G]      [A]
I feel----------------------
[A]     [G]
Harvest moon
[A]                [G]
A change--------------------
[G]      [A]
I love this time of year......
[G][D][D][A]

INTRO

VERSE

CHORUS

INTRO

[A][C]

---0-------0-------5------4---
------------------------------
------------------------------
------------------------------
------------------------------
------------------------------

[A5]
[E5][E5][E5][A5][E5]        (5 times)

---12---12---12---11---10-----
------------------------------
------------------------------
------------------------------
------------------------------
------------------------------
 
INTRO

VERSE

CHORUS                      (2 times)

OUTRO

-----5------5------3------4------9------7------5------3-----
------------------------------------------------------------
------------------------------------------------------------
------------------------------------------------------------
------------------------------------------------------------
------------------------------------------------------------
------------------------------------------------------------



Comments