Blue Oyster Cult - Dont Fear The Reaper Chords & Tabs

 

Dont Fear The Reaper Chords & Tabs

Blue Oyster Cult Chords & Tabs

Version: 8 Type: Tab 0 ratings
1 star 2 stars 3 stars 4 stars 5 stars
comments

Dont Fear The Reaper Tab

Dont fear the repaer
Blue oyster cult
Solo

This to me is the best solo ever 
her it is im pretty sure its right


------------------------------------------------------------
-------13------13------13------13------13-------------------
--10-13---10-13---10-13---10-13---10-13---------------------
------------------------------------------------------------
------------------------------------------------------------
------------------------------------------------------------

------------------------------------------------------------
-------12------12------12------12------12------12-----------
--10-12---10-12---10-12---10-12---10-12---10-12-------------
------------------------------------------------------------
------------------------------------------------------------
------------------------------------------------------------

------------------------------------------------------------
-------13------13------13------13------13-------------------
--10-13---10-13---10-13---10-13---10-13---------------------
------------------------------------------------------------
------------------------------------------------------------
------------------------------------------------------------

------------------------------------------------------------
-------12------12------12------12------12------12-----------
--10-12---10-12---10-12---10-12---10-12---10-12-------------
------------------------------------------------------------
------------------------------------------------------------
------------------------------------------------------------


Main Solo (really cool sounding) :  t = trill

[ Tab from: http://www.guitartabs.cc/tabs/b/blue_oyster_cult/dont_fear_the_reaper_tab_ver_8.html ]
-15t-15^16--13h15p13-12-13-15-15---------------13---15^16^15
---------------------------------15---15-16-15----16--------
------------------------------------------------------------
------------------------------------------------------------
------------------------------------------------------------
------------------------------------------------------------

s19-19-19^20--15-15-15h16p15---15h16p15----15-13h15p13---13-
----------------------------------------18-------------17---
------------------------------------------------------------
------------------------------------------------------------
------------------------------------------------------------
------------------------------------------------------------

------------------------------------15^17^15-13-11-13----11-
-15-17-13---12h13p12----------------------------------15----
---------------------12h13p12----12-------------------------
------------------------------------------------------------
------------------------------------------------------------
------------------------------------------------------------

------------------------------------------------------------
-13-15-15^16^15---13-12h13p12-13-12h13p12-------------------
------------------------------------------13p12-12----12----
---------------------------------------------------15-------
------------------------------------------------------------
------------------------------------------------------------

----------------------------------------------13------------
----13-12----13-12-------------------------13---------------
-12-------l2-------12-12s10-10-------12-13-------13-12------
----------------------------------15------------------------
------------------------------------------------------------
------------------------------------------------------------

----15^17^15------------------------------------------------
------------------------------------------------------------
-12----------12-12s10-10----10h12-12------------------------
------------------------------------------------------------
------------------------------------------------------------
------------------------------------------------------------
 thats it
Comments