Blue Oyster Cult - Dont Fear The Reaper Chords & Tabs

 

Dont Fear The Reaper Chords & Tabs

Blue Oyster Cult Chords & Tabs

Version: 6 Type: Tab 0 ratings
1 star 2 stars 3 stars 4 stars 5 stars
comments

Dont Fear The Reaper Tab

Blue Oyster Cult Don't Fear the Reaper.
Tabbed by Mark Waldron mark32@music.com.
  
------------------------------------------------------       
Blue Oyster Cult - Don't Fear the Reaper
------------------------------------------------------

normal tuning
[ Tab from: http://www.guitartabs.cc/tabs/b/blue_oyster_cult/dont_fear_the_reaper_tab_ver_6.html ]
---------------------------------
---------------------------------
-----2-0-------0-------0--------0
---2---------0-------0--------0--
-0---------2-------3--------2----
---------3-------1--------3------

just play that throughout the whole song. it's a really easy song to play. i know that it's the right way to play it because i got it out of the real tab book. 
:: Ultimate Guitar Archive :: 
http://www.ultimate-guitar.com 

Comments