Blue Oyster Cult - Dont Fear The Reaper Chords & Tabs

 

Dont Fear The Reaper Chords & Tabs

Blue Oyster Cult Chords & Tabs

Version: 5 Type: Tab 1 rating
1 star 2 stars 3 stars 4 stars 5 stars
comments

Dont Fear The Reaper Tab

   
##################################################################################
# This file is the author's own work and represents their interpretation of the  #
# song. You may only use this file for private study, scholarship, or research.  #
##################################################################################

Blue Oyster Cult - Don't Fear the Reaper

It's come to my attention that when you play the intro to this literally from most of the other tabs,
it sounds wrong. Instead of picking the 'G' string separately after the very first bit, the 'E' and 'G' strings should be picked together, to give a more resounding sound. I've tabbed the solos as well. Enjoy!




Am       G        F       G
-------------------------------------
-------------------------------------
-------2-0------0--------0-------0---
-----2----------0--------0-------0---
---0----------2--------3-------2-----
------------3--------1-------3-------


=============================
1st verse : Am G F G Am G F G
=============================


1st solo break :

--15-13-12-13-12--------------------------------------------
-----------------15^17---15-13-12---------------------------
----------------------------------12----14------------------
-------------------------------------14---------------------
------------------------------------------------------------
------------------------------------------------------------

la, la la la la...

------------------------------------------------------------
-----12-13-12----15-15^17^15-13-12--------------------------
--14----------14-------------------12----14-----------------
--------------------------------------14--------------------
------------------------------------------------------------
------------------------------------------------------------

la, la la la la...

--------12--------------------------------------------------
--10^12----12^13^l2-10------12-10---------------------------
-----------------------12-9---------------------------------
------------------------------------------------------------
------------------------------------------------------------
------------------------------------------------------------

2nd verse (same as 1)

2nd solo break :

-12------------------12-------------------------------------
----12^13^12-10---------12^13^12-10----10-10-10-------------
------------------------------------12----------------------
------------------------------------------------------------
------------------------------------------------------------
------------------------------------------------------------

------------------------------------------------------------
-10-12^13^12--10-8s10-10s12-12s10---------------------------
------------------------------------------------------------
------------------------------------------------------------
------------------------------------------------------------
------------------------------------------------------------

lead - 
[ Tab from: http://www.guitartabs.cc/tabs/b/blue_oyster_cult/dont_fear_the_reaper_tab_ver_5.html ]
no chords or bass
------------------------------------------------------------
-------13------13------13------13------13-------------------
--10-13---10-13---10-13---10-13---10-13---------------------
------------------------------------------------------------
------------------------------------------------------------
------------------------------------------------------------

------------------------------------------------------------
-------12------12------12------12------12------12-----------
--10-12---10-12---10-12---10-12---10-12---10-12-------------
------------------------------------------------------------
------------------------------------------------------------
------------------------------------------------------------

------------------------------------------------------------
-------13------13------13------13------13-------------------
--10-13---10-13---10-13---10-13---10-13---------------------
------------------------------------------------------------
------------------------------------------------------------
------------------------------------------------------------

------------------------------------------------------------
-------12------12------12------12------12------12-----------
--10-12---10-12---10-12---10-12---10-12---10-12-------------
------------------------------------------------------------
------------------------------------------------------------
------------------------------------------------------------


Main Solo [awesome, truly awesome]

-15t-15^16--13h15p13-12-13-15-15---------------13---15^16^15
---------------------------------15---15-16-15----16--------
------------------------------------------------------------
------------------------------------------------------------
------------------------------------------------------------
------------------------------------------------------------

s19-19-19^20--15-15-15h16p15---15h16p15----15-13h15p13---13-
----------------------------------------18-------------17---
------------------------------------------------------------
------------------------------------------------------------
------------------------------------------------------------
------------------------------------------------------------

------------------------------------15^17^15-13-11-13----11-
-15-17-13---12h13p12----------------------------------15----
---------------------12h13p12----12-------------------------
------------------------------------------------------------
------------------------------------------------------------
------------------------------------------------------------

------------------------------------------------------------
-13-15-15^16^15---13-12h13p12-13-12h13p12-------------------
------------------------------------------13p12-12----12----
---------------------------------------------------15-------
------------------------------------------------------------
------------------------------------------------------------

----------------------------------------------13------------
----13-12----13-12-------------------------13---------------
-12-------l2-------12-12s10-10-------12-13-------13-12------
----------------------------------15------------------------
------------------------------------------------------------
------------------------------------------------------------

----15^17^15------------------------------------------------
------------------------------------------------------------
-12----------12-12s10-10----10h12-12------------------------
------------------------------------------------------------
------------------------------------------------------------
------------------------------------------------------------

3rd verse
[once again same chords as 1 ans 2]: 


xx and that's it, baby!
Comments