Blue Oyster Cult - Burning For You Chords & Tabs

 

Burning For You Chords & Tabs

Blue Oyster Cult Chords & Tabs

Version: 4 Type: Tab 0 ratings
1 star 2 stars 3 stars 4 stars 5 stars
comments

Burning For You Tab

-----------------------------------------------------------------------------
			   Burning for You - Blue Oyster Cult
-----------------------------------------------------------------------------

Tuning: Standard

Intro
e|-1-------------3--------------|
B|-1--5-3h5p3------5-3h5p3------|
G|-2----------5------------5----|
D|-3----------------------------|
A|-3----------------------------|
E|-1----------------------------|
Play this 3 times

Interlude
e|---8p7---8p7--------------------------------------------------12-------15b-|
B|-8-----8---------------------12----------------------------------15--------|
G|-------------9/12-10p9----14----12----12-14----------------14-------12-----|
D|-----------------------12----------14----------12-14-14h15-----------------|
A|--------------------------------------------15-----------------------------|
E|---------------------------------------------------------------------------|
Play this once before the verse

Verse
e|-----5-----5------7-----7------5-----5------1-----3--|
B|-----5-----5------8-----8------6-----6------1-----3--|
G|-----5-----5--9-9-9-9-9-9--7-7-7-7-7-7------1-----3--|
D|-7-7---7-7----9-9---9-9----7-7---7-7----3-3---5-5----|
A|-7-7---7-7----7-7---7-7----5-5---5-5----3-3---5-5----|
E|-5-5---5-5------------------------------1-1---3-3----|
p.m...   ...    ...   ...    ...   ...    ...   ...
Listen to the song for timing

Chorus
Burn out the day...
e|-----------------------------------------|
B|-----------------------------------------|
G|-----------------------------------------|
D|-7-5-7--5--3-3--5-5--7-5-7--5--3-3--5-5--|
A|-7-5-7--5--3-3--5-5--7-5-7--5--3-3--5-5--|
E|-5-3-5--3--1-1--3-3--5-3-5--3--1-1--3-3--|

I can't see no reason...
e|---------------------------------------------------------------------------|
B|---------------------------------------------------------------------------|
G|-5-------5-5--------------------------5-------5-5--------------------------|
D|-5-------5-5--------3-3--3--3-3--5-5--5-------5-5--------3-3--3--3-3--5-5--|
A|-3-0---0-3-3-0---0--3-3--3--3-3--5-5--3-0---0-3-3-0---0--3-3--3--3-3--5-5--|
E|-----3---------3----1-1--1--1-1--3-3------3---------3----1-1--1--1-1--3-3--|

And I'm burning, I'm burning, I'm burning for you...
e|-------------------------------------------------------------|
B|-------------------------------------------------------------|
G|-------------------------------------------------------------|
D|-7-5-7--5--3-3--5-5--7-5-7--5--3-3--5-5--7-5-7--5--3-3--5-5--|
A|-7-5-7--5--3-3--5-5--7-5-7--5--3-3--5-5--7-5-7--5--3-3--5-5--|
E|-5-3-5--3--1-1--3-3--5-3-5--3--1-1--3-3--5-3-5--3--1-1--3-3--|
[ Tab from: http://www.guitartabs.cc/tabs/b/blue_oyster_cult/burning_for_you_tab_ver_4.html ]
Intro Again
e|-1-------------3--------------|
B|-1--5-3h5p3------5-3h5p3------|
G|-2----------5------------5----|
D|-3----------------------------|
A|-3----------------------------|
E|-1----------------------------|
Play this 2 times

Second Interlude
e|-------------------------------------------------------13-------13------15-|
B|----13-12-13-------------15-13-12-13-15----15b17r15-------13-------13------|
G|-12-------------12b14r12----------------12----------14-------14-------12---|
D|-------------14------------------------------------------------------------|
A|---------------------------------------------------------------------------|
E|---------------------------------------------------------------------------|

Solo
e|-----------3-----------3-----------5-5-5-8\5--5------5-----5-5--------------|
B|-5-3h5p3-----5-3h5p3-----5-3h5p3----------------5------5--------------------|
G|---------5-----------5-----------5----------------7b-----7-----7b-----------|
D|----------------------------------------------------------------------------|
A|------------------------------------------------------------------5-5-7-7---|
E|----------------------------------------------------------------------------|

e|----------------------------------------------------------------------------|
B|---------------------5-------8----------------------------------------------|
G|---9b11r9-7h9b-7-7-7---7-5-7---7-5-7-5-------------------9-9-9-9--9-7h9-9-7-|
D|-5-------------------------------------7------------------------------------|
A|----------------------------------------------------------------------------|
E|-----------------------------------------5-0-0-0-0-0-0-0--------------------|

e|-----------------------------15-15b17-------------------------------------|
B|----------------------------------------15-12-15-15p12-12---12------------|
G|-9-9-9-9-9-9-7h9-9-9-7h9-9-9------------------------------14-----------5b-|
D|-------------------------------------14------------------------5-7-5-7----|
A|--------------------------------------------------------------------------|
E|--------------------------------------------------------------------------|

e|---------------------------------------------------------------------------|
B|-----5b---------3b---------------------------------------------------------|
G|---5----9/7/5/2----5-----5-0---5-0---5-0---5-0-----------------------------|
D|-7-------------------5-7-----7-----7-----7-------5-0---5-0---5-0---5-0-----|
A|-----------------------------------------------7-----7-----7-----7-----7-5-|
E|---------------------------------------------------------------------------|

e|---------------5h7-7-5h7-7-7p5-7b9-7---5--|
B|-------------------------------------8----|
G|-9p7-9-9p7-9-9----------------------------|
D|------------------------------------------|
A|------------------------------------------|
E|------------------------------------------|

That's everything except the lead riffs during the chorus at the end.
Comments