Blue Oyster Cult - Burning For You Chords & Tabs

 

Burning For You Chords & Tabs

Blue Oyster Cult Chords & Tabs

Version: 1 Type: Bass Tab 0 ratings
1 star 2 stars 3 stars 4 stars 5 stars
comments

Burning For You Bass Tab

START OFF WITH:
G-------------------
D-------------------
A-------------------  LET EACH NOTE RING OUT
E-1------1------1---

INTRO:
G---------------------------------------------------------------------
D---------------------------------------------------------------------
A---------00000000-----------------------------------55555555---------
E-33333333--------11111111-33333333-00000000-11111111--------33333333-

VERSE: PLAY 2X
G------------------------------------------------------------------------
D-------222222-5-000000-333333-5--7---------222222-5-000000-333333-2--0--
A-000000-----------------------------000000------------------------------
E------------------------------------------------------------------------
[ Tab from: http://www.guitartabs.cc/tabs/b/blue_oyster_cult/burning_for_you_btab.html ]
CHORUS:
G--------------
D-------------- PLAY 2X
A--------------
E-535-3--1--33-

G-----------------------------------------------------------------
D-----------------------------------------------------2-3--5------
A-3-0---0-3-3-0-------0-3-----0-3--3--2--0-----5------------------
E-----3---------3---1-----1-1---------------3------------------33-

G--------------                  G----------
D--------------  PLAY 3X THEN    D----------  LET RING OUT
A--------------                  A----------
E-535-3--1--33-                  E-1----1---

THEN PLAY:
INTRO
VERSE
CHORUS
VERSE (NO LYRICS)
CHORUS

ENDING:
G--------------               G-------------------
D--------------  PLAY 7X      D-------------------  LET RING OUT
A--------------               A-----------------0-
E-535-3--1--33-               E-1----1-----1------

ALRIGHT THATS IT, ALL IN ORDER.  HAVE FUN.
Comments