Blue October - Congratulations Chords & Tabs

 

Congratulations Chords & Tabs

Blue October Chords & Tabs

Version: 1 Type: Tab

Congratulations Tab

   
This amazing song is from Blue October's 2006 release "Foiled".

Intro/Verse:
e: -----------------------4-----------------------0-------------------------|
B: ------5--4--------5--4-----------5--4----------2-------------------------|
G: ---------------------------------------4-------2-------------------------|
D: -----------------------------------------------2-------------------------|
A: ---7-----------7--------------7----------------0-------------------------|
E: -----------------------------------------------0-------------------------|


A                                      B
I've been wanting to give to you for years …

Chorus:

E             B
My heart, my pain won't cover up
A
You left me.. hu hu hu hu
E               B
My heart won't take this cover up
A
You left me.. hu hu hu hu
[ Tab from: http://www.guitartabs.cc/tabs/b/blue_october/congratulations_tab.html ]
Verse:
e: -----------------------4-----------------------0-------------------------|
B: ------5--4--------5--4-----------5--4----------2-------------------------|
G: ---------------------------------------4-------2-------------------------|
D: -----------------------------------------------2-------------------------|
A: ---7-----------7--------------7----------------0-------------------------|
E: -----------------------------------------------0-------------------------|


A                                      B
I've been wanting to give to you for years …

End:

e: ----0------x------x-------0---------------------------------------------|
B: ----0------x------x-------0---------------------------------------------|
G: ----4------5------7-------9---------------------------------------------|
D: ----4------5------7-------9---------------------------------------------|
A: ----2------3------5-------7---------------------------------------------|
E: ----0------x------x-------0---------------------------------------------|

“Go away… Make it go away… Please”

Send any corrections to kd.burton@okstate.edu. Lyrics used can be found at 
Enjoy and thanks!