Blue October - Clumsy Card House Chords & Tabs

 

Clumsy Card House Chords & Tabs

Blue October Chords & Tabs

Version: 1 Type: Tab 0 ratings
1 star 2 stars 3 stars 4 stars 5 stars
comments

Clumsy Card House Tab

---------------------------------------------------------------------------
			     Blue October - Clumsy Card House
---------------------------------------------------------------------------
Tabbed by: Jordy
Email: freebird1414@hotmail.com

Tuning: standard

This song starts with mandolin/violin picking that is hard for me to tab because
of the strangeness of the instrument.  Hopefully somebody will add it, or I can
try more later.  But the fun part of this song, this AWESOME song, is pretty simple.

e|---------------------------------------------------
B|---------------------------------------------------
G|--5---5-4---4---4---4---4--5---5-9--4-4---4---4----
D|---------------------------------------------------
A|--3---3-2-2---2---2---2----3---3-7--2-2-2---2------
E|---------------------------------------------------
[ Tab from: http://www.guitartabs.cc/tabs/b/blue_october/clumsy_card_house_tab.html ]
and then at "Here I'm standing up because I want to fall in love with you"
he plays, or something like this...

e|------------------------------
B|------------------------------
G|----4---5--10-x-7-----5---5---
D|------------------------------
A|--2-2-3-3--8--x-5---3-3-3-3---
E|------------------------------

then back to the verse...

then for the "There are kids who play..."

e|------------------------------
B|------------------------------
G|--9--7--5--4--7--5--4---------
D|------------------------------
A|--7--5--3--2--5--3--2---------
E|------------------------------

revolving with the verse riff...then it gets louder...and at a steady,
fast pace.  Play this part with a pic.

e|---------------------------------------------
B|---------------------------------------------
G|--5-5-5-5-5-5-4-4-4-4-4-4-5-5-5-5-5-5--9--4-4
D|--x-x-x-x-x-x-x-x-x-x-x-x-x-x-x-x-x-x--x--x-x
A|--3-3-3-3-3-3-2-2-2-2-2-2-3-3-3-3-3-3--7--2-2
E|---------------------------------------------

ending with doing that after "c'mon!" twice...
Comments